Coyote Shivers - Sugar High Chords & Tabs

 

Sugar High Chords & Tabs

Coyote Shivers Chords & Tabs

Version: 1 Type: Bass Tab 0 ratings
1 star 2 stars 3 stars 4 stars 5 stars
comments

Sugar High Bass Tab

	Artist:Coyote Shivers
	Title:Sugar High
	
	intro/bridge
G----------------------------------------------
D----------------------------------------------
A---5---3-3-3-3-3-3-3-3---5---3-3-3-3-3-3-3-3--
E-3---0-----------------3---0------------------
	
	main riff 
G------------------------------------------
D------------------------------------------
A-----------5-5-5-5-5-----------3-3-3-3-3--
E-3-3-3-3-3-----------0-0-0-0-0------------
[ Tab from: http://www.guitartabs.cc/tabs/c/coyote_shivers/sugar_high_btab.html ]
	chorus
G----------------------------------
D----------------------------------
A-5-5-5-5-5-5-5-5-3-3-3-3-3-3-3-3--
E----------------------------------

G----------------------------
D----------------------------
A-5-5-5-5-5-5-5-5-3-3-3-2-0--
E----------------------------

	back to bridge

you should know when to play what, i don't own the song so i can't 
help you out with the order to play.

tabbed by Duch(shut up it's my real name)of Sko Joe 40 

Comments