Cowboy Mouth - Jenny Says Chords & Tabs

 

Jenny Says Chords & Tabs

Cowboy Mouth Chords & Tabs

Version: 1 Type: Tab 0 ratings
1 star 2 stars 3 stars 4 stars 5 stars
comments

Jenny Says Tab

Intro, Verses and Chorus

e-------------------
B-------------------
G-------------------
D---------------4---
A------4--4--2------  (continuously)
E---2---------------


[ Tab from: http://www.guitartabs.cc/tabs/c/cowboy_mouth/jenny_says_tab.html ]
"Jenny says, turn off the radio..."
e----------------------------
B----------------------------
G----------------------------
D------x-----x-----x--0--x---
A------x--0--x--2--x-----x---   (3x)
E---2--x-----x-----x-----x---


(Changes Up At The End)
e-------------------
B-------------------
G-------------------
D-------------------
A------4--4--2------
E---2-----------0---
Comments