Cowboy Junkies - Sweet Jane Chords & Tabs

 

Sweet Jane Chords & Tabs

Cowboy Junkies Chords & Tabs

Version: 1 Type: Bass Tab 0 ratings
1 star 2 stars 3 stars 4 stars 5 stars
comments

Sweet Jane Bass Tab

   
Song: Sweet Jane 
Artist: Lou Reed (Cowboy Junkies version)
Album: The Trinity Session (1998)
Tabbed by: Elizabeth Rehm (erehm@enteract.com)


G
D
A --5-5--|-------|-------|-------|-------|---5---
E -------|---5---|---3---|--3-3--|---5---|-------
    D D      A       G      G G      A       D


Bridge

G
D
A --5-5--|--5-5--|--5-5--|--5-5--|--5-5--
E -------|-------|-------|-------|-------
    D D     D D     D D     D D     D D
[ Tab from: http://www.guitartabs.cc/tabs/c/cowboy_junkies/sweet_jane_btab.html ]
G
D
A ---5---|---4---|-------|-------|-------
E -------|-------|---3---|---5---|---5---
     D       C#      G       A       A

G
D
A ---5---|---4---|-------|-------|-------
E -------|-------|---3---|---5---|---5---
     D       C#      G       A       A

G
D
A ---5---|-------|---3---|-------
E -------|---5---|-------|---3---
     D       A       C       G

G
D
A ---5---|-------|---3---|-------
E -------|---5---|-------|---3---
     D       A       C       G


Comments