Cowboy Bebop - Tank Chords & Tabs

 

Tank Chords & Tabs

Cowboy Bebop Chords & Tabs

Version: 1 Type: Bass Tab 0 ratings
1 star 2 stars 3 stars 4 stars 5 stars
comments

Tank Bass Tab

Title: Tank!
Artist: The Seatbelts
Tabbed by: Mark (passout67@hotmail.com)
[ Tab from: http://www.guitartabs.cc/tabs/c/cowboy_bebop/tank_btab.html ]
G|---------------------------|
D|---------------------------|
A|---10-9-8-6-----10-9-8-6---|
E|-8----------6-8----------6-|

G|---------------------------|
D|---10-9-8-6-----10-9-8-6---|
A|-8----------6-8----------6-|
E|---------------------------|

That's pretty much through the whole song email me if I made any mistakes.
Comments