Covenant - The Sulphur Feast Chords & Tabs

 

The Sulphur Feast Chords & Tabs

Covenant Chords & Tabs

Version: 1 Type: Tab 0 ratings
1 star 2 stars 3 stars 4 stars 5 stars
comments

The Sulphur Feast Tab

            "The Sulphur Feast"

Artist: Covenant
Album: Nexus Polaris
Transcribed by Petter Fagerli (petterfagerli@hotmail.com)

00:00
Intro Clean gtr: Play 12 times
e|-------------------------|
B|-----0-----0-----0-----0-|
G|---0-----0-----0-----0---|
D|-------------------------|
A|-7-----------------6-----|
E|-------7-----6-----------|	

00:21
Riff1: Play 4 times			
|-------------------------------------------------|
|-------------------------------------------------|
|o-----------------------------------------------o|
|o-----------------------------------------------o|
|-2-----9-----8-----5-----2-----9-----8-----4/5\4-|
|-0-000-7-777-6-666-3-333-0-000-7-777-6-666-2/3\2-|    
    PM-|  PM-|  PM-|  PM-|  PM-|  PM-|  PM-|

00:35
Riff2: Play 2 times
|------------------------------------------|
|------------------------------------------|
|o-----------------------------------------|
|o-----------------------------------------|
|-2----2----2----2----3----3----3----3-----|
|-0-0000-0000-0000-0001-1111-1111-1111-111-|
   PM-| PM-| PM-| PM-| PM-| PM-| PM-|  PM-|

|-----------------------------------------|
|-----------------------------------------|
|----------------------------------------o|
|---------------------2----2-------------o|
|-2----2----2----2----0-0000-000-3-3--3-3-|
|-0-0000-0000-0000-000-----------1-1--1-1-|
   PM-| PM-| PM-| PM-| PM-| PM-|

00:49
Riff1: Play 4 times
01:02
Riff2: Play 2 times
01:16
Riff3: Play 2 times
		         X3
|----------------------|--------------------------|
|----------------------|--------------------------|
|o--------------------o|--------------------------|
|o-7--7-777-7-7--4--8-o|-12--12-12-12-12-12--7--8-|
|--5--5-555-5-5--2--6--|-10--10-10-10-10-10--5--6-|
|----------------------|--------------------------|
[ Tab from: http://www.guitartabs.cc/tabs/c/covenant/the_sulphur_feast_tab.html ]
|---------------------|
|---------------------|
|--------------------o|
|-8--8-8-8-8-8--4--8-o|
|-6--6-6-6-6-6--2--6--|
|---------------------|

01:33
Solo on Riff3: Play 2 times
01:50
Intro: Play 12 times
02:11
Riff1: Play 4 times
02:24
Riff4: Play 4 times
|-----------------------------------|
|-----------------------------------|
|o----------------------------------|
|o----5--4--2--1--1-1-1-1-1-1-1-1-1-|
|-----7--5--3--2--2-2-2-2-2-2-2-2-2-|
|--0--------------------------------|
		      PM- - - - - - - -|

|-----------------------------------|
|-----------------------------------|
|----------------------------------o|
|----5--4--2--1--1-1-1-2-2-2-4-4-4-o|
|----7--5--3--2--2-2-2-3-3-3-5-5-5--|
|-0---------------------------------|
		     PM- - - - - - - -|

02:52
Riff5: Play 4 times 
                           _______________________			
                          |1		              |	 
		   
|-------------------------|-----------------------|
|-------------------------|-----------------------|
|o------------------------|----------------------o|
|o------------------------|----------------------o|
|-------------------------|-------------------5---|
|-0-5-0-3-0-2-0-5-0-3-0-2-|-0-5-0-3-0-2-0-0-0-3---| 
  PM- - - - - - - - - - - - - - - - - - - - -|
 ____________________________
|2			           |

|----------------------------|
|----------------------------|
|---------------------------o|
|---------------------------o|
|-4------4------5--5--5--7---|
|-2--222-2--222-3--3--3--5---|
     PM-|   PM-|

03:19
Riff2: Play 2 times
03:33
Riff3: Play 2 times
03:50
Solo on Riff3: Play 2 times
04:07
Ending Riff: Play once
|---------------------------||
|---------------------------||
|---------------------------||
|---------------------------||
|-2-----9-----8-----5-----2-||
|-0-000-7-777-6-666-3-333-0-||
    PM-|  PM-|  PM-|  PM-|

E-mail me at petterfagerli@hotmail.com 
for corrections or comments.
Comments