Courtney Love - Hello Chords & Tabs

 

Hello Chords & Tabs

Courtney Love Chords & Tabs

Version: 1 Type: Tab 0 ratings
1 star 2 stars 3 stars 4 stars 5 stars
comments

Hello Tab

   
Hello,Courtney Love

Verse:
-----------------------------------|
-----------------------------------|
-6---------9-----------------------|
-6---7-----9----9------------------|
-4---7-----7----9------------------|
--- -5----------7------------------|
C#   A     E    B

Chorus:
-----------------------------------|
-----------------------------------|
-----------------------------------|
-11----9-----7-----9---------------|
-11----9-----7-----9---------------|
--9----7-----5-----7---------------|
 C#    B     A     B

Bridge:
------------------------------------|
------------------------------------|
--------7---------------------------|
-7------7-------3------10-----9-----|
-7------5-------3------10-----9-----|
-5--------------1-------8-----7-----|
 A      D       F       C    B

LYRICS:
Shut up!
I'm about to take all your innocense for free
Shut up!
In the end you're gonna wanna pay me any and everything
Shut up!
I'm about to tell you how i won the war
I'll tell you what or how or when and in the end you'll never ever ever ask what for
[ Tab from: http://www.guitartabs.cc/tabs/c/courtney_love/hello_tab.html ]
Hello Hello Hello Hello Hello Hello
Are you talking to me?
Hello Hello Hello Hello Hello Hello
Breath Baby Breath!

Shut up!
I'm about to tell you about the difference you will never make
How to will the war with no regrets, no hurt no pain no shame
Shut up!
I'm about to tell you some secrets you will never know
Now don't ask what don't moan don't cry don't even ask where this is going to go no no

Hello Hello Hello Hello Hello Hello
Are you talking to me?
Hello Hello Hello Hello Hello Hello
Breath Baby Breath
Hello Hello HEllo Hello Hello Hello
Oh Oh Are you talking to me?
Hello Hello HEllo Hello Hello Hello

What's the matter?
My baby's dead
His heart went blind on me
My dress caught fire from one match that you gave me
And all thats left is your vail and the breath i got
Yeah I won't share in your misery cos your phonecalls gone
And noone's coming
Noone's coming
Noone's coming
Noone's coming for YOU!

Hello Hello Hello Hello Hello Hello
My dress ion fire
Hello Hello HEllo Hello Hello Hello
Lets burn it down
Hello Hello HEllo Hello Hello Hello
I got no desires no one no one
Hello Hello HEllo Hello Hello Hello
But you leave the same day same year
Ring around the rosie yeah
Addicted to all that shit
Pocket full of real estate
Taxes ?
And don't you hate when it all burns down
and dies and dies and dies and dies
Baby fire Baby Fire Baby Fire Baby FIRE!
Comments