Course Of Nature - Caught In The Sun Chords & Tabs

 

Caught In The Sun Chords & Tabs

Course Of Nature Chords & Tabs

Version: 4 Type: Tab 0 ratings
1 star 2 stars 3 stars 4 stars 5 stars
comments

Caught In The Sun Tab

   
Caught In The Sun-Course Of Nature
Superkala

Tuning:

Gtr. 1 (acous.)
Db Ab Db F Ab Db

Gtr. 2&3:
Eb Ab Db Gb Bb Eb


Intro: Fig. 1 x2

Gtr. 1

d-0---0---0-0---0--0-0-0-0-0--0---0---0-0---0--0-0-0-0-0--
a-0---0---0-0---0--0-0-0-0-0--0---0---0-0---0--0-0-0-0-0--
f-8---8---8-8---8--8-8-8-8-8--8---8---8-8---8--8-8-8-8-8--
d-9---9---9-9---9--9-9-9-9-9--7---7---7-7---7--7-7-7-7-7--
a-9---9---9-9---9--9-9-9-9-9--7---7---7-7---7--7-7-7-7-7--
d-9---9---9-9---9--9-9-9-9-9--7---7---7-7---7--7-7-7-7-7--

d-0---0-0-0--0---0---0--0-0-0-0-0-0---0-0-0--0---0--0-0---
a-0---0-0-0--0---0---0--0-0-0-0-0-0---0-0-0--0---0--0-0---
f-7---7-7-8--8---8---8--8-8-8-8-8-7---7-7-8--8---8--8-8---
d-5---5-5-5--5---5---5--5-5-5-5-5-5---5-5-5--5---5--5-5---
a-5---5-5-5--5---5---5--5-5-5-5-5-5---5-5-5--5---5--5-5---
d-5---5-5-5--5---5---5--5-5-5-5-5-5---5-5-5--5---5--5-5---

Verses Fig. 1 x4

Chorus: Gtr. 2

e-----------------------------------------------------------------------
b-3--------3-3----------------------------------------------------------
g-2--------2-2--2--------2-2-----------4-4-4-4-x-x-2-2-2-2-x-x-2-2-2-2--
d-0--------0-0--2--------2-2--5--------4-4-4-4-x-x-2-2-2-2-x-x-2-2-2-2--
a-0--------0-0--0--------0-0--5--------2-2-2-2-x-x-0-0-0-0-x-x-0-0-0-0--
e-----------------------------3-----------------------------------------

e-----------------------------------------------------------------------
b-3--------3-3--3-------------------------------------------------------
g-2--------2-2--2--------2-2-----------------4---4-----2----------------
d-0--------0-0--2--------2-2--5----5----5----4---4-----2----------------
a-0--------0-0--0--------0-0--5----5----5----2---2-----0----------------
e-----------------------------3-3--3----3-------------------------------

Bridge:

e-----------------------------------------------------------------------
b-----------------------------------------------------------------------
g-3--3--3--3--3--3--3--3--5--5--5--5--5--5--5--5------------------------
d-3--3--3--3--3--3--3--3--5--5--5--5--5--5--5--5------------------------
a-1--1--1--1--1--1--1--1--3--3--3--3--3--3--3--3------------------------
e-----------------------------------------------------------------------

e-----------------------------------------------------------------------
b-----------------------------------------------------------------------
g-5/7-7-7-x-5-5/7-7-7-x-5-5/7-7\5-5/7-7-7-x-5-5/7-7-7-x-5-5/7--7\-------
d-5/7-7-7-x-5-5/7-7-7-x-5-5/7-7\5-5/7-7-7-x-5-5/7-7-7-x-5-5/7--7\-------
a-3/5-5-5-x-3-3/5-5-5-x-3-3/5-5\3-3/5-5-5-x-3-3/5-5-5-x-3-3/5--5\-------
e-----------------------------------------------------------------------
[ Tab from: http://www.guitartabs.cc/tabs/c/course_of_nature/caught_in_the_sun_tab_ver_4.html ]
e-----------------------------------------------------------------------
b-----------------------------------------------------------------------
g-3-----------------3--3--5--5--5--5--5--5--5--5------------------------
d-3--3--3--3--3--3--3--3--5--5--5--5--5--5--5--5------------------------
a-1--1--1--1--1--1--1--1--3--3--3--3--3--3--3--3------------------------
e-----------------------------------------------------------------------

e-----------------------------------------------------------------------
b-----------------------------------------------------------------------
g-5/7-7-7-x-5-5/7-7-7-x-5-5/7-7\5-5/7-7-7---3---------------------------
d-5/7-7-7-x-5-5/7-7-7-x-5-5/7-7\5-5/7-7-7---3---------------------------
a-3/5-5-5-x-3-3/5-5-5-x-3-3/5-5\3-3/5-5-5---1---------------------------
e-----------------------------------------------------------------------

Guitar Solo:

e---------17------------------------------------------------------------
b-----------------------------------17----------------------------------
g-18--19--------19---18-19--18--19-------19---18-19-\14~~~~~~~~~~~~~~~~-
d-----------------------------------------------------------------------
a-----------------------------------------------------------------------
e-----------------------------------------------------------------------

e---------------------------------------------/19-----17----------------
b-20p19-17----17--------------17---------------------------19h20-19h20--
g----------19----19------19------19---18--19----------------------------
d-------------------17--------------------------------------------------
a-----------------------------------------------------------------------
e-----------------------------------------------------------------------

e-----------17----------------------------------------------------------
b-19-------------20----19h20-19-----------------------------------------
g-----19------------------------\14~~~~-4-4-4-6-6-6-7-7-7-9-9-9-7-7-9-9-
d---------------------------------------4-4-4-6-6-6-7-7-7-9-9-9-7-7-9-9-
a---------------------------------------2-2-2-4-4-4-5-5-5-7-7-7-5-5-7-7-
e-----------------------------------------------------------------------

Mini Outro Solo:

D5/A                    A5                        G5  

e-----------------------------------------------------------------------
b-------10-----------------------/12---10-------------------------------
g-----------------------------------------12--11--12--11-12~~~~~~~------
d-12--------12--11-12---11--12------------------------------------------
a-----------------------------------------------------------------------
e-----------------------------------------------------------------------

B5                A5   D5/A            A5                                      

e-----------------------------------------------------------------------
b-10---------------------------10--------------10-----------------------
g---12-11-12-11---9--------------------------------12---11--12----------
d--------------12------11--12----------11--12-------------------12------
a-----------------------------------------------------------------------
e-----------------------------------------------------------------------

End on G5

that's all

this song is fuckin awesome
and as always, this is 100% copied, from gtr 1.

trevor jones
timmy91199@yahoo.ca
Comments