Countong Crows - Angels Of The Silence Chords & Tabs

 

Angels Of The Silence Chords & Tabs

Countong Crows Chords & Tabs

Version: 1 Type: Tab 0 ratings
1 star 2 stars 3 stars 4 stars 5 stars
comments

Angels Of The Silence Tab

   
#----------------------------------PLEASE NOTE---------------------------------#
#This file is the author's own work and represents their interpretation of the #
#song. You may only use this file for private study, scholarship, or research. #
#------------------------------------------------------------------------------##
#

Date: Tue, 19 Nov 1996 19:53:49 -0800
From: "Michael A. Mazur" 
Subject: TAB: Counting Crows, "Angels of the Silences"

Tab: "Angels of the Silences," Counting Crows
Transcribed by Michael A. Mazur (mmazur@wpi.edu)

Chords used:
G#5    : 466xxx
A5     : 577xxx
E5     : 022xxx
B5     : x244xx
E      : 079900
G#m    : 466444
B      : 799877
F#m    : 244222
A      : 577655
E5(II) : xx9900

Intro:
Guitar 1 plays chords: G#5 A5 E5 B5
Guitar 2 plays:
|--0----0--0--0--0--0--0----0--0--0--0--0--|
|--0h2--2--2--2--0--0--0h2--2--2--2--0--0--|
|------------------------------------------|
|------------------------------------------|
|------------------------------------------|
|------------------------------------------|



|--0--0--0--0--0----------0--|
|--5--5--7--7--5h7p5\4\2--0--|
|----------------------------|
|----------------------------|
|----------------------------|
|----------------------------|



|--0----0--0--0--0--0--0----0--0--0--0--0--|
|--0h2--2--2--2--0--0--0h2--2--2--2--0--0--|
|------------------------------------------|
|------------------------------------------|
|------------------------------------------|
|------------------------------------------|



|--7--7--7--7--7------------------------|
|--5--5--5--5--5------------------------|
|---------------------------------------|
|-----------------7\6--4----4b(6)r4--2--|
|---------------------------------------|
|---------------------------------------|



Intro:
Guitar 1 plays chords: G#5 A5 E5 B5

          *(Guitar 2 plays fill 1)
Why'd you leave me ...

Fill 1
|--0--0--0--0--5--5--5--4--0--|
|--0--0--0--0--5--5--5--5--5--|
|-----------------------------|
|-----------------------------|
|-----------------------------|
|-----------------------------|

Chorus: (Guitars 1 & 2 play chords indicated)



* (w/ first 3 measures of intro, then fill 1)

Fill 2
|--12~~~--|---NH---------|
|---------|--~~~-----|
|---------|--------------|
|---------|--------------|
|---------|--------------|
|---------|-----------\--|


Waiting for you ...

Bridge:
Both guitars play:
|--0--0--0--0--0--0-----0--0--0--0----------|
|--0--0--0--0--0--0-----0--0--0--0----------|
|--7--6--7--6--7--9-----7--6--4--2--1h2--4--|
|-------------------------------------------|
|--5--4--5--4--5--7-----5--4--2--0----------|
|-------------------------------------------|



|--0--0--0--0--0--0----0---0------0---0---0---0---|
|--0--0--0--0--0--0----0---0------0---0---0---0---|
|--7--6--7--6--7--9---/13--11--13/14--13--11--13--|
|-------------------------------------------------|
|--5--4--5--4--5--7-------------------------------|
|-------------------------------------------------|

Solo:
Guitar 1 plays G#5 A5 E5 B5
Guitar 2 plays:
|----------------------------------------------|
|----------------------------------------------|
|--8~~~--8~~~--8--8--8--8/9~~~--9~~~--9--9--9--|
|----------------------------------------------|
|----------------------------------------------|
|----------------------------------------------|



|-------------------|--0-0---0--0--0-0---0--0--|
|-------------------|--9/10--9--9--9/10--9--9--|
|--8h9/11--9--8-----|--------9--9--------9--9--|
|----------------9--|--------------------------|
|-------------------|--------------------------|
|-------------------|--------------------------|



|---------------0--12------0--------0--------0--------0----|
|--10b(12)--10--9------10b(12)--10b(12)--10b(12)--10b(12)--|
|----------------------------------------------------------|
|----------------------------------------------------------|
|----------------------------------------------------------|
|----------------------------------------------------------|



|---------------------------------------------------|
|--9-----------------------10-----------------------|
|-----9~~~--9~~~--9~~~--9------9~~~--9~~~--9~~~--9--|
|---------------------------------------------------|
|---------------------------------------------------|
|---------------------------------------------------|


[ Tab from: http://www.guitartabs.cc/tabs/c/countong_crows/angels_of_the_silence_tab.html ]
|------------------------------------------|
|--12------------------------9-------------|
|------9~~~--9~~~--9~~~--11-----11~~~--11--|
|------------------------------------------|
|------------------------------------------|
|------------------------------------------|



|--0---0---0--0--0---0--0--0--|--0--0--0--0--0--0--0--0------|
|--12--10--9--7--10--9--7--5--|--9--7--5--4--7--5--4--2------|
|-----------------------------|------------------------------|
|-----------------------------|------------------------------|
|-----------------------------|------------------------------|
|-----------------------------|--------------------------\0~~|


Fill 3
|--0-------|
|--4-------|
|--4-------|
|--6-------|
|--6-------|
|--------7\|



|--12----------14p12------12------12----------14p12------12------|
|------12--12---------12------12------12--12---------12------12--|
|----------------------------------------------------------------|
|----------------------------------------------------------------|
|----------------------------------------------------------------|
|----------------------------------------------------------------|



|--12----------14p12------12------12b(14)r12------|
|------12--12---------12------12--------------12--|
|-------------------------------------------------|
|-------------------------------------------------|
|-------------------------------------------------|
|-------------------------------------------------|



|--12------12--14--12----------12------12--14--12----------|
|------12--------------12--12------12--------------12--12--|
|----------------------------------------------------------|
|----------------------------------------------------------|
|----------------------------------------------------------|
|----------------------------------------------------------|



|--12------12--14--12----------16b(17)r16--14--|
|------12--------------12--12------------------|
|----------------------------------------------|
|----------------------------------------------|
|----------------------------------------------|
|----------------------------------------------|




Guitar 2 plays this riff twice over the chorus:
|-12--12--12-12--12--12-12--|--12-12--12--12-12--12--12-12--12--|
|/12--12--12/12--12--12/12--|--12/12--12--12/12--12--12/12--12--|
|---------------------------|-----------------------------------|
|---------------------------|-----------------------------------|
|---------------------------|-----------------------------------|
|---------------------------|-----------------------------------|



|------11----------11------|----------------|
|----------12----------12--|-----2-------5--|
|--13----------11----------|-----2-------6--|
|--------------------------|--4--4--4/7--7--|
|--------------------------|--4--4--4/7--7--|
|--------------------------|----------------|


Ending:
Guitar 1 plays E5(II) throught the ending

* (Guitar 2 enters here with the part below)
I'm gone...


|-----------------|-----------------|
|-----------------|-----------------|
|--9--------8-----|--9--------8-----|
|--9--------9-----|--7--------9-----|
|--7--------9-----|--7--------9-----|
|-----7--------7--|-----7--------7--|



|---------------|----------------------|
|---------------|----------------------|
|--9-----11-----|--13------------------|
|---------------|----------------------|
|--7-----9------|--11-----9b(11)r9-----|
|-----7------7--|------7------------7--|



|--0--0--0--0--0--0--0--0--0--0--0--0--|
|--0--0--0--0--0--0--0--0--0--0--0--0--|
|--9--9--9--9--9--9--8--8--8--8--8--8--|
|--9--9--9--9--9--9--9--9--9--9--9--9--|
|--7--7--7--7--7--7--9--9--9--9--9--9--|
|-----------7--7--7-----------7--7--7--|



|--0---0---0---0---0---0---0--0--0--0--0--0--|
|--10--10--10--10--10--10--0--0--0--0--0--0--|
|--9---9---9---9---9---9---8--8--8--8--8--8--|
|--7---7---7---7---7---7---9--9--9--9--9--9--|
|--7---7---7---7---7---7---9--9--9--9--9--9--|
|--------------7---7---7------------7--7--7--|



|-----12--12--12--12--12--12--12--|
|--10/12--12--12--12--12--12--12--|
|---------------------------------|
|---------------------------------|
|---------------------------------|
|---------------------------------|



|-----12--12--12--12--12--12--12--|
|--10/12--12--12--12--12--12--12--|
|---------------------------------|
|---------------------------------|
|---------------------------------|
|---------------------------------|



|-----12--12--12--12--12--12--12--|
|--10/12--12--12--12--12--12--12--|
|---------------------------------|
|---------------------------------|
|---------------------------------|
|---------------------------------|



|---12--12--12--12--12--12--12--12--|-------|
|--/12--12--12--12--12--12--12--12--|-------|
|-----------------------------------|-1-----|
|-----------------------------------|-2-----|
|-----------------------------------|-2-----|
|-----------------------------------|\0~~~--|
Comments