Counting Crows - Colorblind Chords & Tabs

 

Colorblind Chords & Tabs

Counting Crows Chords & Tabs

Version: 6 Type: Tab 0 ratings
1 star 2 stars 3 stars 4 stars 5 stars
comments

Colorblind Tab

IN DIFFERENT KEY TO SONG RECORDING BUT STILL SOUNDS GOOD.
[ Tab from: http://www.guitartabs.cc/tabs/c/counting_crows/colorblind_tab_ver_6.html ]
----------------------------------------------------e
----------------------------------------------------B
-----------2------------------4---------------------G
-----0---0---0---0------0---0---0---0---------------D
---2---2-------2------3---3-------3-----------------A
----------------------------------------------------E


----------------------------------------------------e
----------------------------------------------------B
-----------0----------0-------0---------------------G
-----0---0---0---0------0---0---0---0---------------D
---2---2-------2------3---3-------3-----------------A
----------------------------------------------------E


(continues through whole song)
Comments