Countess - Ritual Of The 7 Priests Chords & Tabs

 

Ritual Of The 7 Priests Chords & Tabs

Countess Chords & Tabs

Version: 1 Type: Tab 0 ratings
1 star 2 stars 3 stars 4 stars 5 stars
comments

Ritual Of The 7 Priests Tab

   
RITUAL OF THE 7 PRIESTS

As performed by COUNTESS on the album "The Return Of The Horned One".
Words and music by Orlok.

Normal tuning.

Fig. 1 (guitar 1)
E|-------------------------------------------------|
B|----12----10-----12----10-----10----8----10----8-|
G|-10----12-----10----12------8----10----8----10---|
D|-------------------------------------------------|
A|-------------------------------------------------|
E|-------------------------------------------------|

Fig. 1 (guitar 2)
E|--------------------------------------------------|
B|--------------------------------------------------|
G|-101010101010101010101010101010108888888888888888-|
D|-101010101010101010101010101010108888888888888888-|
A|-8-8-8-8-8-8-8-8-8-8-8-8-8-8-8-8-6666666666666666-|
E|--------------------------------------------------|

Fig. 2
E|--------|
B|--------|
G|--------|
D|--------|
A|--------|
E|--------|
[ Tab from: http://www.guitartabs.cc/tabs/c/countess/ritual_of_the_7_priests_tab.html ]
Fig. 3 (without distortion)
E|---------------------------------------------------------------------|
B|---------------------------------------------------------------------|
G|---9---9---9---9---10---10---10---10---9---9---9---9---7---7---7---7-|
D|-0---0---0---0---0----0----0----0----0---0---0---9---0---0---0---0---|
A|---------------------------------------------------------------------|
E|---------------------------------------------------------------------|

Fig. 4
E|------------------|
B|------------------|
G|-7---7---7---7----|
D|-7---7---7---7----|
A|-5---5---5---5----|
E|------------------|

Fig. 5
E|-------------------------------------|
B|-------------------------------------|
G|-10-------12-------10-------8--------|
D|-10-------12-------10-------8--------|
A|-8--------10-------8--------6--------|
E|-------------------------------------|

Fig. 6
E|------------------|
B|------------------|
G|-7-777-777-77-7-7-|
D|-7-777-777-77-7-7-|
A|-5-555-555-55-5-5-|
E|------------------|


SONG STRUCTURE

intro			drums only
Fig 1 x 6		w/verse 1
Fig 1 x 2
Fig 2 x 4
Fig 3 x 2		w/verse 2
Fig 3 x 2
Fig 4 x 4		w/guitar lead
Fig 5 x 1		w/verse 3
Fig 6 x 4
Fig 5 x 1		w/verse 4
Fig 6 x 16		w/guitar lead (fade-out)
Comments