Countess - Ghosts Of Leather Chords & Tabs

 

Ghosts Of Leather Chords & Tabs

Countess Chords & Tabs

Version: 1 Type: Tab 0 ratings
1 star 2 stars 3 stars 4 stars 5 stars
comments

Ghosts Of Leather Tab

   
GHOSTS OF LEATHER

As performed by COUNTESS on the album "Spawn Of Steel".
Words and music by Orlok.

Normal tuning.

x = palm mute

Fig. 1
E|------------------------------------|
B|------------------------------------|
G|-0-5-7-5--0-5-7-5-7--0-5-7-5--------|
D|------------------------------8-7-5-|
A|------------------------------------|
E|------------------------------------|

Fig. 2
E|---------------------------------------------------|
B|---------------------------------------------------|
G|---------------------------------------------------|
D|----------------------------------10-10----10-10---|
A|----------------------------------10-10----10-10---|
E|-3-333-333-333-333-333-333-333-33-8--8-----8--8----|

Fig. 3
E|-------------------------------------------------------|
B|-------------------------------------------------------|
G|-------------------------------------------------------|
D|-------------------------------------------------------|
A|-------------------------------------------------------|
E|-3333333333333333555555555555555566666666666666668-----|
								     xxxx

Fig. 4
E|----------------|
B|----------------|
G|----------------|
D|-5---8---7---10-|
A|-5---8---7---10-|
E|-3---6---5---8--|
[ Tab from: http://www.guitartabs.cc/tabs/c/countess/ghosts_of_leather_tab.html ]
Fig. 5
E|------------------------------------------|
B|------------------------------------------|
G|------------------------------------------|
D|-5555555588888888777777771010101010101010-|
A|-5555555588888888777777771010101010101010-|
E|-3333333366666666555555558-8-8-8-8-8-8-8--|

Fig. 6
E|----------------------------------|
B|----------------------------------|
G|----------------------------------|
D|----------------------------------|
A|----------------------------------|
E|-33333333333333336666666666666666-|
   xxxxxxxxxxxxxxxxxxxxxxxxxxxxxxxx

E|----------------------------------|
B|----------------------------------|
G|----------------------------------|
D|----------------------------------|
A|----------------------------------|
E|-55555555555555558888888888888888-|
   xxxxxxxxxxxxxxxxxxxxxxxxxxxxxxxx

Fig. 7
E|--------|
B|--------|
G|--------|
D|--------|
A|--------|
E|--------|

Fig. 8
E|---|
B|---|
G|---|
D|-5-|
A|-5-|
E|-3-|


SONG STRUCTURE

Fig 1 x 4
Fig 2 x 4		w/verse 1
Fig 1 x 4
Fig 2 x 4		w/verse 2
Fig 3 x 1		w/bridge
Fig 4 x 2		w/chorus
Fig 5 x 2		w/chorus
Fig 6 x 2		w/guitar lead
Fig 7 x 4
Fig 7 x 16		w/chorus
Fig 1 x 4
Fig 2 x 4		w/verse 3
Fig 3 x 1		w/bridge
Fig 4 x 2		w/chorus
Fig 5 x 2		w/chorus
Fig 8
Comments