Countess - Fire And Blood Chords & Tabs

 

Fire And Blood Chords & Tabs

Countess Chords & Tabs

Version: 1 Type: Tab 0 ratings
1 star 2 stars 3 stars 4 stars 5 stars
comments

Fire And Blood Tab

   
FIRE & BLOOD

As performed by COUNTESS on the album "The Return Of The Horned One".
Words and music by Orlok.

Normal tuning.

x = palm mute

Fig. 1
E|---------------------|
B|---------------------|
G|---------------------|
D|-4444-5555-4444-5454-|
A|-4444-5555-4444-5454-|
E|-2222-3333-2222-3232-|
   xxxx xxxx xxxx xxxx

Fig. 2
E|---------------------|
B|---------------------|
G|---------------------|
D|-4444-5555-4444-5454-|
A|-4444-5555-4444-5454-|
E|-2222-3333-2222-3232-|

Fig. 3
E|----------------------|
B|----------------------|
G|----------------------|
D|-2----2----7----7-----|
A|-2----2----7----7-----|
E|-0----0----5----5-----|
[ Tab from: http://www.guitartabs.cc/tabs/c/countess/fire_and_blood_tab.html ]
Fig. 4
E|----------------------------------|
B|----------------------------------|
G|----------------------------------|
D|-2222222222222222777777777--------|
A|-2222222222222222777777777--------|
E|-0000000000000000555555555--------|
                            xxxxxxx

Fig. 5
E|-------------------------------------|
B|-------------------------------------|
G|---4--------4--------5-2------5-2----|
D|-2-4-5----2-4-5----2-5-2----2-3-0----|
A|-2-2-5----2-2-5----2-3-0----2-3-0----|
E|-0---3----0---3----0--------0--------|

Fig. 6
E|---------------------|
B|---------------------|
G|---------------------|
D|-4----5----4----5454-|
A|-4----5----4----5454-|
E|-2----3----2----3232-|


SONG STRUCTURE

Fig 1 x 2
Fig 1 x 4		w/verse 1
Fig 1 x 2
Fig 1 x 4		w/verse 2
Fig 2 x 4
Fig 3 x 2
Fig 4 x 4
Fig 5 x 1		w/verse 3
Fig 5 x 1		w/verse 4
Fig 4 x 4
Fig 5 x 1		w/verse 5
Fig 5 x 1		w/verse 6
Fig 1 x 4
Fig 2 x 7		w/guitar lead
Fig 6 x 1
Comments