Countess - Child Of The Millennia Chords & Tabs

 

Child Of The Millennia Chords & Tabs

Countess Chords & Tabs

Version: 1 Type: Tab 0 ratings
1 star 2 stars 3 stars 4 stars 5 stars
comments

Child Of The Millennia Tab

   
CHILD OF THE MILLENNIA

As performed by COUNTESS on the album "The Revenge Of The Horned One - Part II".
Words and music by Orlok.

Normal tuning.

x = palm mute

Fig. 1
E|-------------------------------------------------------------|
B|-------------------------------------------------------------|
G|-------------------------------------------------------------|
D|------------------------5-7-8-7-5-7-8-7-5-8-7----5-7-8-7-5-7-|
A|-5-7-8-7-5-7-8-7-5-8-7-------------------------8-------------|
E|-------------------------------------------------------------|

E|-------------------------------------------|
B|-------------------------------------------|
G|-------------------------------------------|
D|------------------5-7-8-7-5-8--8-7-5-7-----|
A|-8-7-5-7-8-5-7--8----------------------8-7-|
E|-------------------------------------------|

Fig. 2
E|----------------------------------|
B|----------------------------------|
G|----------------------------------|
D|----------------------------------|
A|-5--------------------------------|
E|----------------------------------|

Fig. 3
E|------------------|
B|------------------|
G|-7777777777777777-|
D|-7777777777777777-|
A|-5555555555555555-|
E|------------------|
   xxxxxxxxxxxxxxxx
[ Tab from: http://www.guitartabs.cc/tabs/c/countess/child_of_the_millennia_tab.html ]
Fig. 4
E|-------------------------|
B|-------------------------|
G|-7---10---12---10-9-10-9-|
D|-7---10---12---10-9-10-9-|
A|-5----8---10----8-7--8-7-|
E|-------------------------|

Fig. 5
E|------------------|
B|------------------|
G|-7----------------|
D|-7----------------|
A|-5----------------|
E|------------------|

Fig. 6
E|------------------10-10------------------8-8-11-11-8-8------------|
B|------------10-10-------10-10----------8--------------------------|
G|-7-------10--------------------5------------------------7----5----|
D|-7-----------------------------5------------------------7----5----|
A|-5-----------------------------3------------------------5----3----|
E|------------------------------------------------------------------|

Fig. 7 (guitar 1)
E|-----------------|
B|-----------------|
G|-----------------|
D|---8-5-7---7-5---|
A|-5-------8-----7-|
E|-----------------|

Fig. 7 (guitar 2)
E|---6-3-5---5-3---|
B|-3-------6-----5-|
G|-----------------|
D|-----------------|
A|-----------------|
E|-----------------|


SONG STRUCTURE

Fig 1 x 1
Fig 2 x 1		w/verse 1
Fig 1 x 1
Fig 2 x 1		w/verse 2
Fig 3 x 1
Fig 4 x 2		w/chorus
Fig 5 x 1
Fig 6 x 1		w/verse 3
Fig 1 x 1
Fig 2 x 1		w/verse 4
Fig 1 x 1
Fig 2 x 1		w/verse 5
Fig 1 x 1
Fig 7 x 4		guitar 1 only
Fig 7 x 4
Fig 2 x 1
Fig 4 x 4		w/chorus
Fig 5 x 1
Fig 6 x 1		w/verse 6
Fig 1 x 4		(fade-out)
Comments