Countess - Bloed Voor Wodan Chords & Tabs

 

Bloed Voor Wodan Chords & Tabs

Countess Chords & Tabs

Version: 1 Type: Tab 0 ratings
1 star 2 stars 3 stars 4 stars 5 stars
comments

Bloed Voor Wodan Tab

   
BLOED VOOR WODAN

As performed by COUNTESS on the album "Heilig Vuur".
Words and music by Orlok.

Normal tuning.

x = palm mute

Fig. 1
E|-----------------------------------|
B|-----------------------------------|
G|-----------------------------------|
D|-2-2----4-4----5-7-9------99775544-|
A|-2-2----4-4----5-7-9------99775544-|
E|-0-0----2-2----3-5-7------77553322-|

Fig. 2
E|------------------------------------|
B|------------------------------------|
G|------------------------------------|
D|-2-2-2-2--2-2-2-2--2-2-2-2--222-222-|
A|-2-2-2-2--2-2-2-2--2-2-2-2--222-222-|
E|-0-0-0-0--0-0-0-0--0-0-0-0--000-000-|
     x x x    x x x    x x x

Fig. 3
E|------------------------------------|
B|------------------------------------|
G|------------------------------------|
D|-2-222-222-22-2-2--4-444-444-44-4-4-|
A|-2-222-222-22-2-2--4-444-444-44-4-4-|
E|-0-000-000-00-0-0--2-222-222-22-2-2-|

E|-------------------------------------|
B|-------------------------------------|
G|-------------------------------------|
D|-7-777-777-77-7-7--5-555-55-4-44-7-5-|
A|-7-777-777-77-7-7--5-555-55-4-44-7-5-|
E|-5-555-555-55-5-5--3-333-33-2-22-5-3-|

Fig. 4
E|-------|
B|-------|
G|-------|
D|-2-----|
A|-2-----|
E|-0-----|
[ Tab from: http://www.guitartabs.cc/tabs/c/countess/bloed_voor_wodan_tab.html ]
Fig. 5
E|---------------------------------|
B|---------------------------------|
G|---------------------------------|
D|---------------------------2-----|
A|-------2-3-2-----------2-3---3---|
E|-0-2-3-------3-2-0-2-3-----------|

Guitar lead 1
E|--------------------------------------------------------------|
B|------------10-12-10--------------------10-12-13-12-10-12-12--|
G|-9-9--11-12----------12-11-12-12--11-12-----------------------|
D|--------------------------------------------------------------|
A|--------------------------------------------------------------|
E|--------------------------------------------------------------|

E|-12-10----------12-10-----------------------------------|
B|-------13-12-13-------13-12-13--12-10--------10---------|
G|--------------------------------------12-11----12-11-9--|
D|--------------------------------------------------------|
A|--------------------------------------------------------|
E|--------------------------------------------------------|


SONG STRUCTURE

intro (Em chord)
Fig 1 x 4
Fig 2 x 2
Fig 2 x 4 		w/verse 1
Fig 3 x 2		w/verse 2
Fig 2 x 4
Fig 4 x 2 
Fig 4 x 9 		w/guitar lead 1
Fig 4 x 8
Fig 4 x 8		w/guitar lead 2
Fig 1 x 4  		w/chorus
Fig 2 x 2
Fig 2 x 4 		w/verse 3
Fig 3 x 2		w/verse 4
Fig 5 x 2
Fig 1 x 4		w/chorus
Fig 2 x 2
Fig 2 x 1
Comments