Count The Stars - Taking It All Back Chords & Tabs

 

Taking It All Back Chords & Tabs

Count The Stars Chords & Tabs

Version: 2 Type: Tab 0 ratings
1 star 2 stars 3 stars 4 stars 5 stars
comments

Taking It All Back Tab

i'm not gonna show the strumming...it's easy so you can figure it out by
listening to the song...


intro
guitar #1
e----------------------------------------------------------------------------------
b----------------------------------------------------------------------------------
g----4-----------------------------------------------------------------------------
d----4------4-------6------1-----2-----2------4------------------------------------
a----2------4-------6------1-----2-----2------4------------------------------------
e-----------2-------4------0-----0-----0------2------------------------------------

guitar #2
e----------------------------------------------------------------------------------
b----------------------------------------------------------------------------------
g-------5-------7--------5--------------5-------4----------------------------------
d---------------------------------5-------------------------5----------------------
a----------------------------------------------------------------------------------
e----------------------------------------------------------------------------------

pre verse
guitar #1
e----------------------------------------------------------------------------------
b----------------------------------------------------------------------------------
g----4-----------------------------------------------------------------------------
d----4------4-------6------1-----2-----2------4------4-----------------------------
a----2------4-------6------1-----2-----2------4------4-----------------------------
e-----------2-------4------0-----0-----0------2------2-----------------------------

guitar #2
e----------------------------------------------------------------------------------
b-----------------8-------6------5--------------------8---6---5--------------------
g---5----7---------------------------------5----7---------------------7----5-------

e----------------------------------------------------------------------------------
b-------------8-----6-----5-------------6------5--------------6----5---------------
g--5-----7-------------------7-----5----------------7----5-----------------5-------

verse
guitar #1
e----------------------------------------------------------------------------------
b----------------------------------------------------------------------------------
g-----4------------------4---------------------4----------------4------------------
d-----4--------2---------4---------2-----------4-------2--------4--------2---------
a-----2--------2---------2---------2-----------2-------2--------2--------2---------
e--------------0-------------------0-------------------0-----------------0---------
 p.m.                                         **********************
                     
chorus
guitar #1
e---------------------------------------------------------------
b---------------------------------------------------------------
g----4----------------------------------------------------------
d----4------4-------6------1-----2-----2-----4------4-----------  x2
a----2------4-------6------1-----2-----2-----4------4-----------
e-----------2-------4------0-----0-----0-----2------2-----------

i might be a little off on this part or it might be a
huge mistake...but i can't really hear it so here it
goes...
guitar #2 (not sure)
e--7----7--------3------3-------
b------7----7---------3-----3---     x4
g-------------------------------

e--7----7--------3------3-------7------7----------11-----11--------
b-----7-----7--------3------3-------7------7----------11-----11----
  g----------------------------------------------------------------

e--7----7--------3------3-------
b-----7-----7-------3------3---- x2
g-------------------------------

pre verse
guitar #1                                     end
e--------------------------------          e--------------------
b--------------------------------          b--------------------
g--4------6-------4------8-------          g--6-----6---6-------
d--x------x-------x------x-------      x3  d--x-----x---x-------
a--2------4-------2------6-------          a--4-----4---4-------
e--------------------------------          e--------------------
    

guitar #2   end  (i'm not sure if he does the same
thing as guitar #1 and then in the end comes in with
heavy distortion and does this)
e-----------------------------
b-----------------------------
g----6--------6------6--------
d----x--------x------x--------  
a----4--------4------4--------
e-----------------------------  
[ Tab from: http://www.guitartabs.cc/tabs/c/count_the_stars/taking_it_all_back_tab_ver_2.html ]
verse
guitar #1                            1st part |  2nd
part
e------------------------------------------|----------------------------------------
b------------------------------------------|----------------------------------------
g-----4------------------4-----------------|------4----------------4----------------
d-----4--------2---------4---------2-------|------4-------2--------4--------2-------
a-----2--------2---------2---------2-------|------2-------2--------2--------2-------
e--------------0-------------------0-------|--------------0-----------------0-------
 p.m.                                           **********************

during the 1st part of the verse, guitar #2 just strums
without playing anything...if you listen to it you'll
be able to tell how the strumming goes like i said
before, i'm not showing strumming...for the 2nd part he does this...
e-----------------------------                      
b-----------------------------
g--4------6-------4------8----                        
d--x------x-------x------x----      x3             
a--2------4-------2------6----
e-----------------------------                   
   
chorus
guitar #1
e-------------------------------------------------------------------
b-------------------------------------------------------------------
g----4--------------------------------------------------------------
d----4------4-------6------1-----2-----2-----4-------4--------------
a----2------4-------6------1-----2-----2-----4-------4--------------
e-----------2-------4------0-----0-----0-----2-------2--------------

guitar #2 (not sure)
e--7----7--------3------3-------
b------7----7---------3-----3---     x4
g-------------------------------

e--7----7--------3------3-------7------7----------11-----11--------
b-----7-----7--------3------3-------7------7----------11-----11----
g------------------------------------------------------------------

e--7----7--------3------3-------
b-----7-----7-------3------3---- x2
g-------------------------------

pre verse
guitar #1
e--------------------------------          e--------------------
b--------------------------------          b--------------------
g--4------6-------4------8-------          g--6-----------------
d--x------x-------x------x-------      x3  d--x-------1---------
a--2------4-------2------6-------          a--4-------1---------
e--------------------------------          e----------0---------
    
        


riff (not sure about this part either)
e----------------------------------
b----------------------------------
g----------------------------------
d----1-------2-------1-----2-------    x4
a----1-------2-------1-----2-------
e----0-------0-------0-----0-------

pre chorus
guitar #1
e----------------------------------------------------------------------------------
b----------------------------------------------------------------------------------
g----4-----------------------------------------------------------------------------
d----4------4-------6------1-----2-----2------4------------------------------------
a----2------4-------6------1-----2-----2------4------------------------------------
e-----------2-------4------0-----0-----0------2------------------------------------

chorus 
guitar #1
e-------------------------------------------------------------------
b-------------------------------------------------------------------
g----4--------------------------------------------------------------
d----4------4-------6------1-----2-----2------4---------------------  x2
a----2------4-------6------1-----2-----2------4---------------------
e-----------2-------4------0-----0-----0------2---------------------

guitar #2 (not sure)
e--7----7--------3------3-------
b------7----7---------3-----3---     x4
g-------------------------------

e--7----7--------3------3-------7------7----------11-----11------
b-----7-----7--------3------3-------7------7----------11-----11--
g----------------------------------------------------------------

e--7----7--------3------3-------
b-----7-----7-------3------3---- x2
g-------------------------------

ending
guitar #1
e--------------------------------          e--------------------
b--------------------------------          b--------------------
g--4------6-------4------8-------          g--6-----6---6----4--
d--x------x-------x------x-------      x3  d--x-----x---x----4--
a--2------4-------2------6-------          a--4-----4---4----2--
e--------------------------------          e--------------------

and here you go...i hope you enjoy it...i'm think there's a lot of
mistakes, so if you find any and fix them please e-mail me them...later...
Comments