Count The Stars - Right Behind Me Chords & Tabs

 

Right Behind Me Chords & Tabs

Count The Stars Chords & Tabs

Version: 1 Type: Tab 0 ratings
1 star 2 stars 3 stars 4 stars 5 stars
comments

Right Behind Me Tab

This is right behind me by count the stars. Its off of there new CD never be taken alive,
and this is my very first tab also so if there are any problems email me.

Tabbed by: Adam
Email: Misstabadazz@aol.com
                      
                    Right Behind me - Count the stars
. = Palm mute
Note: Listen for palm mute let off at verse & struming at course

Tuning: standard
  Intro - Guitar 1
e|------------------------------------------------------------------|
B|------------------------------------------------------------------|
G|---6666-----------------------------------------------------------|
D|---6666-4444-888-66666--------------------------------------------|
A|---4444-4444-888-66666--------------------------------------------|
E|--------2222-666-44444--------------------------------------------|
     .... .... ... .....

Guitar 2
e|------------------------------------------------------------------|
B|------------------------------------------------------------------|
G|----------------------------------------------------- x4 ---------|
D|---11-11-11-11-11-11-11-11-11-11-11--13-13-13-13-13---------------|
A|------------------------------------------------------------------|
E|------------------------------------------------------------------|

Verse 
e|------------------------------------------------------------------|
B|------------------------------------------------------------------|
G|---6666-------------------- x6 -----------------------------------|
D|---6666-4444-888-66666--------------------------------------------|
A|---4444-4444-888-66666--------------------------------------------|
E|--------2222-666-44444--------------------------------------------|
     .... .... ... .....
[ Tab from: http://www.guitartabs.cc/tabs/c/count_the_stars/right_behind_me_tab.html ]
Bridge (you push and pull your fate till its all you could take.....)
e|--------------------------------------------------------------------|
B|--------------------------------------------------------------------|
G|---6666----------------- x1 --THEN---6666---------------66666666----|
D|---6666-4444-888-66666---------------6666-4444-66666666-66666666----|
A|---4444-4444-888-66666---------------4444-4444-66666666-44444444----|
E|--------2222-666-44444--------------------2222-44444444-------------|
     .... .... ... .....               .... .... ........ Let off PM

Guitar 2 at bridge
e|------------------------------------------------------------------|
B|------------------------------------------------------------------|
G|------------------------------------------------------------------|
D|-11-11-11-11-13-13-13-13-15-15-15-15-13-13-13-13------------------|
A|------------------------------------------------------------------|
E|------------------------------------------------------------------|

e|------------------------------------------------------------------|
B|------------------------------------------------------------------|
G|------------------------------------------------------------------|
D|-11-11-11-11-13-13-13-13-15-15-15-15------------------------------|
A|------------------------------------------------------------------|
E|------------------------------------------------------------------|

Course
e|------------------------------------------------------------------|
B|------------------------------------------------------------------|
G|---666--------------- x3 --THEN---6666---------------666666-------|
D|---666-444-88-6666----------------6666-4444-66666666-666666-------|
A|---444-444-88-6666----------------4444-4444-66666666-444444-------|
E|-------222-66-4444---------------------2222-44444444--------------|

Verse (insted of x6, its x2)

Bridge

Course

The rest of the song is basically just like the verse but listen for struming.
Comments