Cotton Elizabeth - Freight Train Chords & Tabs

 

Cotton Elizabeth Chords & Tabs

Version: 1 Type: Tab 0 ratings
1 star 2 stars 3 stars 4 stars 5 stars
comments

Freight Train Tab

   
Please submit comments to isaac.livingston@charter.net

I have visited this site for the past few months as a new guitar player, and I have not found a lot
of Tabs for beginners... So I submit this, very easy as an intro to learning Finger Pick Style 
with 4 chords and an alternating bass line.

I hope you enjoy - I know that I have!!
**************************************************************************************************

Artist Name:            Elizabeth Cotton
Song Name:              Freight Train
Genre:                  Bluegrass / Country

Tablature By:           David Schneider - 2005
Difficulty (Opinion):   Easy



     C                                             G                                          
e||--3---------0---------|----------------------|-----------------3----|--1-------------------|
B||----------------------|--3---------1---------|--0-------------------|----------------------|
G||----------------------|----------------------|----------------------|----------------------|
D||-------2---------2----|-------2---------2----|-------0---------0----|-------0---------0----|
A||--3---------3---------|--3---------3---------|----------------------|----------------------|
E||----------------------|----------------------|--3---------3---------|--3---------3---------|

[ Tab from: http://www.guitartabs.cc/tabs/c/cotton_elizabeth/freight_train_tab.html ]
                                                   C                                          
e||--3---------1---------|----------------------|-----------------3----|--0-------------------|
B||----------------------|--3---------0---------|--1-------------------|----------------------|
G||----------------------|----------------------|----------------------|----------------------|
D||-------0---------0----|-------0---------0----|-------2---------2----|-------2---------2----|
A||----------------------|----------------------|--3---------3---------|--3---------3---------|
E||--3---------3---------|--3---------3---------|----------------------|----------------------|


     E                                             Am                                         
e||--0--------------1----|--0-------------------|----------------------|----------------------|
B||----------------------|-----------------0----|--1--------------3----|--1-------------------|
G||----------------------|----------------------|----------------------|----------------------|
D||-------2---------2----|----------------------|-------2---------2----|-------2---------2----|
A||----------------------|-------2---------2----|--0---------0---------|--0---------0---------|
E||--0---------0---------|--0---------0---------|----------------------|----------------------|


     C                      G                      C                                          
e||--0--------------1----|--0-------------------|-----------------0----|----------------------|
B||----------------------|-----------------3----|--1-------------------|--1-------------------|
G||----------------------|----------------------|----------------------|----------------------|
D||-------2---------2----|-------0---------0----|-------2---------2----|-------2---------2----|
A||--3---------3---------|----------------------|--3---------3---------|--3---------3---------|
E||----------------------|--3---------3---------|----------------------|----------------------|


Compiled by Easy ASCII Tab 2005
Comments