Corrupt Bargain - Deliver Us From Evil Chords & Tabs

 

Deliver Us From Evil Chords & Tabs

Corrupt Bargain Chords & Tabs

Version: 1 Type: Tab 0 ratings
1 star 2 stars 3 stars 4 stars 5 stars
comments

Deliver Us From Evil Tab

   
BY: The Corrupt Bargain
(Richard Flores & Matthew Chiricosta)

This tab is tremendously incomplete, but in an attempt to get our stuff out there
here is the bare bones rhythm tab played me (Rich Flores). Matt's fills are missing,
but for fun, just add your own little Dm scale fills here and there. Enjoy, and please
if you get the chance...deliver us.



CLASSICAL or 12-String INTRO:

e|-5---------------5---------------------------------------------------------|
B|---6-----------6-------8--------------------8----6---------------6---------|
G|-----7-------7-----------9----------------9--------7-----------7-----------|
D|-------7---7---------------10----------10------------8-------8-------------|
A|---------5--------------------10----10-----------------8---8---------------|
E|---------------------------------8-----------------------6-----------------|

     C
e|---8-----------------------------------------------------------------------|
B|---8-----------------------------------------------------------------------|
G|---9-------let ring--------------------------------------------------------|
D|---10----------------------------------------------------------------------|
A|---10----------------------------------------------------------------------|
E|---8-----------------------------------------------------------------------|

VERSE:

Listen to song for "chicka" strumming pattern...
Clean Electric (Insert fills with distorted)
[ Tab from: http://www.guitartabs.cc/tabs/c/corrupt_bargain/deliver_us_from_evil_tab.html ]
     Dm          C            A#           C
e|---5--x-x------8----x--x----6--x---x-----8----------------------------------|
B|---6--x-x------8----x--x----6--x---x-----8----------------------------------|
G|---7--x-x------9----x--x----7--x---x-----9----------------------------------|
D|---0--x-x------10---x--x----8--x---x-----10---------------------------------|
A|---0--x-x------10---x--x----8--x---x-----10---------------------------------|
E|---x--x-x------8----x--x----6--x---x-----8----------------------------------|

CHORUS: "OHHHHHH"

e|---------------------------------------------------------------------------|
B|---------------------------------------------------------------------------|
G|---------------------------------------------------------------------------|
D|-----same as verse with diff strum pattern---------------------------------|
A|---------------------------------------------------------------------------|
E|---------------------------------------------------------------------------|

CHORUS TO VERSE TRANSITION: Play 4-5 x's
     Dm     D?
e|---5------7----------------------------------------------------------------|
B|---6------6----------------------------------------------------------------|
G|---7------7----------------------------------------------------------------|
D|---0------0----------------------------------------------------------------|
A|---0------0----------------------------------------------------------------|
E|---x------x----------------------------------------------------------------|

---->VERSE
---->CHORUS
---->TRANSITION

BRIDGE: Same verse "chicka" strumming pattern....
    Em       D         C        D
e|--7--x-x---10--x-x---8---x-x--10-------------------------------------------|
B|--8--x-x---10--x-x---8---x-x--10-------------------------------------------|
G|--9--x-x---11--x-x---9---x-x--9----let ring--------------------------------|
D|--9--x-x---12--x-x---10--x-x--12-------------------------------------------|
A|--7--x-x---12--x-x---10--x-x--12-------------------------------------------|
E|--7--x-x---10--x-x---8---x-x--10-------------------------------------------|


---->Back to Verse riff

Slow down at end.


Comments