Corrs - What Can I Do Chords & Tabs

 

What Can I Do Chords & Tabs

Corrs Chords & Tabs

Version: 2 Type: Chords 0 ratings
1 star 2 stars 3 stars 4 stars 5 stars
comments

What Can I Do Chords

   
What Can I Do
Music: The Corrs
Lyrics: Andrea Corr
Tabbed by: Joseph Wong
Email: josephwong82@hotmail.com


Intro

A, E/G#, D, D, A/C#, E, Bm7 


A         E/G#            D    A/C#          E                  Bm
I haven't slept at all in days, it's been so long since we have talked


A          E/G#           D     A/C#          E                   Bm
And I have been here many times, I just don't know what I'm doing wrong


Chorus

A          E              D       A/C#        E              Bm
What can I do to make you love me? What can I do to make you care?

A          E               D         A/C#        E             Bm
What can I say to make you feel this? What can I do to get you there?


e|--------------------------------------------------------------------------|
B|--------------------------------------------------------------------------|
G|--------4---4---4---4--------9---9-----11----11---------------------------|
D|--------2---2---2---2--------7---7-----9-----9----------------------------|
A|--0 0 0---0------------5 5 5---5---7------7-------------------------------|
E|--------------4---4-------------------------------------------------------|
[ Tab from: http://www.guitartabs.cc/tabs/c/corrs/what_can_i_do_crd_ver_2.html ]
e|--------------------------------------------------------------------------|
B|--------------------------------------------------------------------------|
G|--------4---4---4---4--------9---9-----11----11-11------------------------|
D|--------2---2---2---2--------7---7-----9-----9--9-------------------------|
A|--0 0 0---0------------5 5 5---5---5\7----7-------------------------------|
E|--------------4---4-------------------------------------------------------|
                                                    leave your hand as it is
                                                    and slide it back up and 
                                                    repeat



A            E/G#          D    A/C#           E             Bm
There's only so much I can take, and I've just got to let it go

A       E/G#               D      A/C#        E               Bm
And who knows I might feel better, if I don't try and I don't hope


Repeat Chorus


F#m                          D E D E  F#m                           D E D/F# E/G#
No more waiting, no more aching,      No more fighting, no more trying



A             E/G#            D   A/C#      E             Bm
Maybe there's nothing more to say, and in a funny way I'm calm

A           E/G#         D     A/C#     E            Bm
Because the power is not mine, I'm just gonna let it fly


Chorus





 \  slide down
Comments