Corrs - Forgiven Not Forgotten Chords & Tabs

 

Forgiven Not Forgotten Chords & Tabs

Corrs Chords & Tabs

Version: 2 Type: Bass Tab 0 ratings
1 star 2 stars 3 stars 4 stars 5 stars
comments

Forgiven Not Forgotten Bass Tab

THE CORRS - "Forgiven Not Forgotten" - Bass Tab

Common Time(4/4)
Drop D Tuning(EADG)

INTRO:

G|-----------|------------|---------|-----------|-----------------|
D|*---------*|------------|---------|-----------|-----------------|
A|*-r-e-s-t-*|-0----3-----|---------|-----------|-------5-7-5-3-2-|
D|-----------|----------0-|---------|-2---5---0-|-----------------|
    1 2 3 4    1 2 3 4 &    1 2 3 4   1 2 3 4 &    1 2 3 e & 4 e &

G|------------|---------|-----------|-------------|
D|------------|---------|-----------|-------------|
A|-0----3-----|---------|-----------|-------------|
D|----------0-|---------|-2---5---0-|-------0---3-|
   1 2 3 4 &    1 2 3 4   1 2 3 4 &    1 2 3 & 4 &

VERSES 1 & 2:
G|------------|---------|-----------|------------------|
D|------------|---------|-----------|-------7----------|
A|-0----3-----|---------|-----------|---------7-5------|
D|----------0-|---------|-2---5---0-|-------------10-9-|
   1 2 3 4 &    1 2 3 4   1 2 3 4 &    1 2 3 & 4 e &  a

G|------------|-----------------|------------|---------|
D|------------|-------------2---|------------|---------|
A|-0----3-----|---------2-------|------------|---------|
D|----------0-|-----------------|-2---5----0-|-------3-|
   1 2 3 4 &    1 2 3 & a 4 e &   1 2 3 4 &    1 2 3 4 
[ Tab from: http://www.guitartabs.cc/tabs/c/corrs/forgiven_not_forgotten_btab_ver_2.html ]
2ND CHORUS:
G|------------|---------|------------|-----------------|
D|------------|---------|------------|-----------------|
A|-0----3-----|---------|------------|-----3-5-5-5-3---|
D|----------0-|---------|-2-----5--0-|-----------------|
   1 2 3 4 &    1 2 3 4   1 2 3 4 &    1 2 a 3 e & a 4 

G|------------|---------|------------|-----------------|
D|------------|---------|------------|-----------------|
A|-0----3-----|---------|------------|-.-.-.-.-.-.-.-.-|
D|----------0-|---------|-2---5----0-|-0-0-0-0-0-0-0-0-|
   1 2 3 4 &    1 2 3 4   1 2 3 4 &    1 & 2 & 3 & 4 &

INSTRUMENTAL:
G|------------|---------|------------|---------|
D|------------|---------|------------|---------|
A|-0----3-----|---------|------------|---------|
D|----------0-|---------|-2---5----0-|---------|
   1 2 3 4 &    1 2 3 4   1 2 3 4 &    1 2 3 4

INTERLUDE:
         (x7)
G|-----------|----------------------|
D|*---------*|-.-.-.-.-.-.----------|
A|*-r-e-s-t-*|-5-5-5-5-5-5-7-5------|
D|-----------|-----------------10-9-|
    1 2 3 4    1 & 2 & 3 & 4 e &  a

END:
                                             (x4)        (x4)
G|-------------|---------|------------|----------|-----------|
D|*------------|---------|------------|---------*|*---------*|
A|*-0----3-----|---------|------------|---------*|*-r-e-s-t-*|
D|-----------0-|---------|-2---5----0-|----------|-----------|
    1 2 3 4 &    1 2 3 4   1 2 3 4 &    1 2 3 4     1 2 3 4

By: Johari Taylor
E-mail: viking@powerup.com.au
More Bass Tabs: http://www.powerup.com.au/~viking/basstab.htm
Comments