Corrs - Everybody Hurts Chords & Tabs

 

Everybody Hurts Chords & Tabs

Corrs Chords & Tabs

Version: 2 Type: Tab 0 ratings
1 star 2 stars 3 stars 4 stars 5 stars
comments

Everybody Hurts Tab

   
Tuning:EADGBE(standard) CAPPO ON 3rd Fret

Intro:
 D                           G
e--------0h2-----------2-------------------------------
B------3-----3-------3---3-----------3-----------3-----
G----2---------2---2-------2-------0---0-------0---0--- (2x)
D--0-------------0---------------0-------0---0-------0-
A------------------------------------------------------
E------------------------------3-----------3-----------

1st Stanza:
 D                           G
e--------0h2-----------2-------------------------------
B------3-----3-------3---3-----------3-----------3-----
G----2---------2---2-------2-------0---0-------0---0---
D--0-------------0---------------0-----------0-------0-
A------------------------------------------------------
E------------------------------3----------33-----------
             When the day is long,

 D                           G
e--------0h2-----------2-------------------------------
B------3-----3-------3---3-----------3-----------3-----
G----2---------2---2-------2-------0---0-------0---0---
D--0-------------0---------------0-----------0-------0-
A------------------------------------------------------
E------------------------------3----------33-----------
  and the night, the night is yours alone

 D                           G
e--------0h2-----------2-------------------------------
B------3-----3-------3---3-----------3-----------3-----
G----2---------2---2-------2-------0---0-------0---0---
D--0-------------0---------------0-----------0-------0-
A------------------------------------------------------
E------------------------------3----------33-----------
            if you think you had enough,           of

   D/F#                                 G                       Em
e---------------------------------------------------------------0--------
B-----------3------------3--------------3---------------------0---0------
G---------2---2--------2---2----------0---0-------0----0----0-------0----
D-------0-------0----0-------0------0-------0----0----0------------------
A------------------------------------------------------------------------
E-----2------------2--------------3------------3----2-----0--------------
 this life,           well hang on                               don't

                      A                           Em
e--------0------------0------------0--------------0------------0---------
B------0---0--------2---2--------2---2----------0---0--------0---0-------
G----0-------0----2-------2----2-------2------0-------0----0-------0-----
D------------------------------------------------------------------------
A---------------0------------0-----------0-------------------------------
E--0----------------------------------------0------------0---------------
  let yourself go,                                    everybody 

         A
e--------0-----------
B------2---2---------
G----2-------2-------
D--------------------
A--0-----------0-----
E--------------------
  cries

2nd Stanza:

          D                          G
e--------0h2-----------2-------------------------------
B------3-----3-------3---3-----------3-----------3-----
G----2---------2---2-------2-------0---0-------0---0---
D--0-------------0---------------0-----------0-------0-
A------------------------------------------------------
E------------------------------3----------33-----------
 Sometimes,                             sometimes everything is

          D                          G
e--------0h2-----------2-------------------------------
B------3-----3-------3---3-----------3-----------3-----
G----2---------2---2-------2-------0---0-------0---0---
D--0-------------0---------------0-----------0-------0-
A------------------------------------------------------
E------------------------------3----------33-----------
  wrong                                now it's time to sing 

      D                          G
e--------0h2-----------2-------------------------------
B------3-----3-------3---3-----------3-----------3-----
G----2---------2---2-------2-------0---0-------0---0---
D--0-------------0---------------0-----------0-------0-
A------------------------------------------------------
E------------------------------3----------33-----------
 along. When your day is night alone

      D                          G
e--------0h2-----------2-------------------------------
B------3-----3-------3---3-----------3-----------3-----
G----2---------2---2-------2-------0---0-------0---0---
D--0-------------0---------------0-----------0-------0-
A------------------------------------------------------
E------------------------------3----------33-----------
   (hold on) If you feel like letting go                 

      D                          G
e--------0h2-----------2-------------------------------
B------3-----3-------3---3-----------3-----------3-----
G----2---------2---2-------2-------0---0-------0---0---
D--0-------------0---------------0-----------0-------0-
A------------------------------------------------------
E------------------------------3----------33-----------
   (hold on) When you think you too much            of
[ Tab from: http://www.guitartabs.cc/tabs/c/corrs/everybody_hurts_tab_ver_2.html ]
  D/F#                                 G                       Em
e---------------------------------------------------------------0--------
B-----------3------------3--------------3---------------------0---0------
G---------2---2--------2---2----------0---0-------0----0----0-------0----
D-------0-------0----0-------0------0-------0----0----0------------------
A------------------------------------------------------------------------
E-----2------------2--------------3------------3----2-----0--------------
 this life,      well hang on                            

                  A                           Em
e--------0------------0------------0--------------0------------0---------
B------0---0--------2---2--------2---2----------0---0--------0---0-------
G----0-------0----2-------2----2-------2------0-------0----0-------0-----
D------------------------------------------------------------------------
A---------------0------------0-----------0-------------------------------
E--0----------------------------------------0------------0---------------
        everybody hurts,                        take comfort to your

               A                           Em
e--------0------------0------------0--------------0------------0---------
B------0---0--------2---2--------2---2----------0---0--------0---0-------
G----0-------0----2-------2----2-------2------0-------0----0-------0-----
D------------------------------------------------------------------------
A---------------0------------0-----------0-------------------------------
E--0----------------------------------------0------------0---------------
  friends                                                everybody

      A
e--------0-----------
B------2---2---------
G----2-------2-------
D--------------------
A--0-----------0-----
E--------------------
    hurts

Bridge:
F#                 Bm    F#  Bm  F#               Bm
   Don't blow your head,  oh no,  don't blow your head
C                          G       C                         Am 
   When you feel like your alone,  no,  no,  no, you're not alone

          D                          G
e--------0h2-----------2-------------------------------
B------3-----3-------3---3-----------3-----------3-----
G----2---------2---2-------2-------0---0-------0---0---
D--0-------------0---------------0-----------0-------0-
A------------------------------------------------------
E------------------------------3----------33-----------
         If you are on your own                 of this

          D                          G
e--------0h2-----------2-------------------------------
B------3-----3-------3---3-----------3-----------3-----
G----2---------2---2-------2-------0---0-------0---0---
D--0-------------0---------------0-----------0-------0-
A------------------------------------------------------
E------------------------------3----------33-----------
 life,  the days and nights are long

          D                          G
e--------0h2-----------2-------------------------------
B------3-----3-------3---3-----------3-----------3-----
G----2---------2---2-------2-------0---0-------0---0---
D--0-------------0---------------0-----------0-------0-
A------------------------------------------------------
E------------------------------3----------33-----------
           when you think you too much             of

D/F#                                 G                       Em
e---------------------------------------------------------------0--------
B-----------3------------3--------------3---------------------0---0------
G---------2---2--------2---2----------0---0-------0----0----0-------0----
D-------0-------0----0-------0------0-------0----0----0------------------
A------------------------------------------------------------------------
E-----2------------2--------------3------------3----2-----0--------------
 this life,      well hang on      

                      A                          Em
e--------0------------0------------0--------------0------------0---------
B------0---0--------2---2--------2---2----------0---0--------0---0-------
G----0-------0----2-------2----2-------2------0-------0----0-------0-----
D------------------------------------------------------------------------
A---------------0------------0-----------0-------------------------------
E--0----------------------------------------0------------0---------------
     Well everybody hurts,                    sometimes

                       A                           Em
e--------0------------0------------0--------------0------------0---------
B------0---0--------2---2--------2---2----------0---0--------0---0-------
G----0-------0----2-------2----2-------2------0-------0----0-------0-----
D------------------------------------------------------------------------
A---------------0------------0-----------0-------------------------------
E--0----------------------------------------0------------0---------------
        everybody cries,                     sometimes
              A          D    G
  Every body hurts, sometimes
                       D   G
  everybody hurts sometimes
          D         G        D        G
  so hold on,  hold on,  hold on,  hold on
     D         G          D         G
  hold on,  hold on,  hold on,  hold on
               D    G-D-G
  you're not alone

End with:

e-------0h2----------
B-----3-----3--------
G---2---------2------
D-0------------------
A--------------------
E--------------------

Enjoy!!!
For comments or corrections, u can E-mail me at b.jiao@eudoramail.com
Comments