Corrosion Of Conformity - Without Wings Chords & Tabs

 

Without Wings Chords & Tabs

Corrosion Of Conformity Chords & Tabs

Version: 2 Type: Tab 0 ratings
1 star 2 stars 3 stars 4 stars 5 stars
comments

Without Wings Tab

   
Corrosion of Conformity , "Without Wings".
Tabbed by Brant Bunney , superman_4534@yahoo.com.
  
C.O.C. - "Without Wings" By Pepper Keenan (Instumental)

------------------------------------------------------------

Tune Down 1 Whole Step: D G C F A D 


Explanation of Tab symbols:
/=slide up
\=slide down
^=hammer-on or pull-off 

Section 1a
D|-12-----12-10-----10--7-----10-5-----5^7-8-----8\7-5---2^3^2^0---0-|
A|------0---------0-----------7--------5---------5------5--------------0---|
F|----0----------0-----------7------------------5---------5---2-------------|
C|------------------------9---------7----------7---------7------------------|
G|------------10-------------------------------------------------------------|
D|-12------------------------------------------------------------------------|

Section 1b

D|---------0-|
A|---0-------|
F|-0---------|
C|-----------|
G|----5/7----|
D|-----------|


Repeat the above section and substitute section 1c for 1b


Section 1c
D|---------0---|
A|---0---------|
F|-0-----------|
C|-------------|
G|-----5/7-----|
D|-----------0-|


Section 2a
[ Tab from: http://www.guitartabs.cc/tabs/c/corrosion_of_conformity/without_wings_tab_ver_2.html ]
D|-0-------------0-----0-0---------0-------0-|
A|-5\3---3-----3-----5------5/8--5--------0-|
F|-------0---0-----0------------------0------|
C|---------------------------2/5--2---2---2--|
G|-----3---3---------4-----------------------|
D|-----------------------0--------------------|


Section 2b
D|-5-----5-2-----2-0---------0-|
A|-----0--------0---------------|
F|----------------------0---0----|
C|-2-2-----2-2-----2-2-----2---|
G|-------------------------------|
D|-------------------------------|


Reapeat sections 2a and 2b, then sections 1a and 1b 2 twice
Then play sections 2a and 2b again 2 times. This is where the other
guitar
comes in. It is played like this:


2nd guitar
D|-10/12----------------------------------------8-7-|
A|-------12\10----7-8-------10-10-12-10---10-----|
F|---------------------9------------------------------|
C|----------------------------------------------------|
G|----------------------------------------------------|
D|----------------------------------------------------|

D|-10/12---------------------------7-7/8-7------|
A|-------12\10----7-8-------10-10--------10-8-|
F|--------------------9---------------------------|
C|------------------------------------------------|
G|------------------------------------------------|
D|------------------------------------------------|

Play sections 1a and 1b, then begin on 1a and stop on the 10th fret
----------------------------------------------------------------------------

Transcribed by Brant Bunney



 
:: Ultimate Guitar Archive :: 
http://www.ultimate-guitar.com 

Comments