Corrosion Of Conformity - Over Me Chords & Tabs

 

Over Me Chords & Tabs

Corrosion Of Conformity Chords & Tabs

Version: 1 Type: Bass Tab 0 ratings
1 star 2 stars 3 stars 4 stars 5 stars
comments

Over Me Bass Tab

Band - Corrosion Of Conformity
Song - Over Me

G|-------------------------------|
D|-------------------------------|
A|-3--3-3---3--3-3---3--3-3------|
E|--------4--------4--------4---6|
[ Tab from: http://www.guitartabs.cc/tabs/c/corrosion_of_conformity/over_me_btab.html ]
G|---------------|--------------------------------------------------|
D|---------------|--------------------------------------------------|
A|-3-------------|-----------------3-1-0-------3----1-0-------3--1-0|
E|------4-4--6-6-|-1----3----3-2-1--------2-1------------2-1--------|

G|--------------------|--------------|--------------|
D|--------------------|--------------|--------------|
A|--------------------|-3------------|-3------------|
E|1(hold)-------------|------4-4--6-6|------4-4--6-6|
Comments