Corrosion Of Conformity - Albatross Chords & Tabs

 

Albatross Chords & Tabs

Corrosion Of Conformity Chords & Tabs

Version: 2 Type: Tab 0 ratings
1 star 2 stars 3 stars 4 stars 5 stars
comments

Albatross Tab

Corrosion of Conformity: Albatross

|-------------------------------------------------------------------------------------|
|-------------------------------------------------------------------------------------|
|--------------------------------------2-2-4-4-4--2-------------------------2-2-2-----|
|--4-2h4-4-4---2-2-2h4-4---4-2h4-4-4---0-0-2-2-2--0--4-2h4-4-4---2-2-2h4-4--0-0-0-2---|
|--2-0h2-2-2---0-0-0h2-2---2-0h2-2-2-----------------2-0h2-2-2---0-0-0h2-2--------0---|
|-------------------------------------------------------------------------------------|

Play that 4 times, then;
[ Tab from: http://www.guitartabs.cc/tabs/c/corrosion_of_conformity/albatross_tab_ver_2.html ]
|-------------------------------------------|----------------------------------------------------|
|-------------------------------------------|----------------------------------------------------|
|-------------------------------------------|----------------------------------------------------|
|-------------------------------------------|----------------------------------------------------|
|--2-2-0--4-4-2--2p0h2--2-0-----------------|--0-2-4-2--0-2-2-0--4-4-2--2p0h2--2-0---------------|
|-----------------------------5~~ 3~~ 1~~---|---------------------------------------5~~ 3~~ 1~~--|
                              ^^^^^^^^^^^^

                                Not sure about these bits

Lee
Comments