Corrinne May - Same Side Of The Moon Chords & Tabs

 

Same Side Of The Moon Chords & Tabs

Corrinne May Chords & Tabs

Version: 1 Type: Tab 0 ratings
1 star 2 stars 3 stars 4 stars 5 stars
comments

Same Side Of The Moon Tab

------------------------------------------------------
     Corrinne May - Same Side of the Moon
       Lyrics and Music by Corrinne May
------------------------------------------------------

Tabbed by: Zi-En 20/03/05
Email: ooi_zien@hotmail.com

This song goes out to a good friend who introduced
Corrinne May's music to me, and I hope you don't ever
stop your song-writing. It's a precious gift many can
only dream of.
And of course, it's for all of you out there missing a
special someone half the world away, as well as all
you Corrinne May fans.

This song is in E key, so play it with a capo on the
4th fret and standard tuning. Not a bad song for
beginners to learn some finger-picking.


INTRO

e|------------|------------|------------|------------|
b|----------3-|----------3-|----------3-|------------|
g|-------0----|----0-------|-------2----|----2-----0-|
D|----2-------|-------2----|----0-------|-------0----|
A|-3----------|------------|-3----------|------------|
E|------------|------------|------------|------------|

e|------------|------------|----------2-|------------|
b|----------3-|----------3-|------------|-3--------3-|
g|-------2----|----2-------|-------0----|----0-------|
D|----0-------|-------0----|----0-------|-------0----|
A|-2----------|------------|------------|------------|
E|------------|------------|-0----------|------------|

e|------------|------------|------------|------------|
b|----------3-|----------3-|----------3-|------------|
g|-------0----|----0-------|-------2----|----2-----0-|
D|----2-------|-------2----|----0-------|-------0----|
A|-3----------|------------|-3----------|------------|
E|------------|------------|------------|------------|

e|------------|------------|-3-|
b|----------3-|----------3-|-2-|
g|-------2----|----2-------|-0-|
D|----0-------|-------0----|-0-|
A|-2----------|------------|-2-|
E|------------|------------|-0-|Strum this upwards

VERSE 1

e|------------|------------|------------|------------|
b|----------3-|------------|----------3-|------------|
g|-------0----|------------|-------2----|------------|
D|----2-------|------------|----0-------|------------|
A|-3----------|------------|-3----------|------------|
E|------------|------------|------------|------------|
I'm looking out the window

e|------------|------------|----------2-|------------|
b|----------3-|------------|----------3-|------------|
g|-------2----|------------|-------0----|------------|
D|----0-------|------------|----0-------|------------|
A|-2----------|------------|------------|------------|
E|------------|------------|-0----------|------------|
Where we sat to watch the stars

e|------------|------------|------------|------------|
b|----------3-|------------|----------3-|------------|
g|-------0----|------------|-------2----|------------|
D|----2-------|------------|----0-------|------------|
A|-3----------|------------|-3----------|------------|
E|------------|------------|------------|------------|
There's a chill within the air

e|------------|------------|----------2-|------------|
b|----------3-|------------|----------3-|------------|
g|-------2----|------------|-------0----|------------|
D|----0-------|------------|----0-------|------------|
A|-2----------|------------|------------|------------|
E|------------|------------|-0----------|------------|
It makes my heart long for your touch

e|----------0-|------------|----------0-|------------|
b|-------1----|----1-----1-|-------1----|------------|
g|----0-------|-------0----|----0-------|------------|
D|-3----------|------------|-3----------|------------|
A|------------|------------|------------|------------|
E|------------|------------|------------|------------|
You may be miles away

e|----------3-|------------|-3-----2----|
g|----------3-|------------|-3-----3----|
b|-------0----|------------|------------|
D|----2-------|------------|-0-----0----|
A|-0----------|------------|------------|
E|------------|------------|------------|
But as I kneel to pray 

CHORUS 1

e|------------|------------|------------|------------|
b|-------3----|-------3----|----------0-|------------|
g|------------|------------|-------2----|------------|
D|----2-------|----0-------|----0-------|------------|
A|-3----------|-0----------|------------|------------|
E|------------|------------|-3----------|------------|
I see the same side of the moon

e|------------|------------|------------|-------0----|
b|-------3----|-------3----|----------3-|------------|
g|------------|------------|-------0----|------------|
D|----2-------|----0-------|----2-------|------------|
A|-3----------|-2----------|------------|------------|
E|------------|------------|-0----------|------------|
That we'll be looking on when the world turns blue


e|----------3-|------------|----------3-|------------|
b|----------1-|------------|----------3-|------------|
g|-------0----|------------|-------0----|------------|
D|----2-------|------------|----2-------|------------|
A|-3----------|------------|-0----------|------------|
E|------------|------------|------------|------------|
And know that time and space can't come between me and you

e|-------3--2-|
b|------------|
g|----0-------|
D|-0----------|
A|------------|
E|------------|

e|------------|------------|------------|------------|
b|-------3----|-------3----|----------0-|------------|
g|------------|------------|-------2----|------------|
D|----2-------|----0-------|----0-------|------------|
A|-3----------|-0----------|------------|------------|
E|------------|------------|-3----------|------------|
We share the same side of the moon

e|------------|------------|------------|-------0----|
b|-------3----|-------3----|----------3-|------------|
g|------------|------------|-------0----|------------|
D|----2-------|----0-------|----2-------|------------|
A|-3----------|-2----------|------------|------------|
E|------------|------------|-0----------|------------|
And though you'll never see all the tears shine through

e|-------3----|------------|------------|------------|
b|-------3----|-------3----|----------3-|------------|
g|------------|------------|-------0----|------------|
D|----2-------|----0-------|----2-------|------------|
A|-3----------|-2----------|-3----------|------------|
E|------------|------------|------------|------------|
I know I can't be that far from you

e|------------|------------|------------|-------2----|
b|-------3----|-------3----|-------3----|-------3----|
g|-------0----|-------0----|------------|----2-------|
D|----2-------|----0-------|----2-------|-0----------|
A|-3----------|-2----------|-3----------|------------|
E|------------|------------|------------|------------|
If we're both looking on the same side of the moon

INTERLUDE
[ Tab from: http://www.guitartabs.cc/tabs/c/corrinne_may/same_side_of_the_moon_tab.html ]
e|----------0-|------------|----------0-|------------|
b|-------3----|----3-------|-------3----|----3-------|
g|----0-------|-------0----|----2-------|-------2----|
D|------------|----------0-|------------|----------0-|
A|-3----------|------------|-3----------|------------|
E|------------|------------|------------|------------|

e|----------0-|------------|------------|------------|
b|-------3----|----3-------|----------3-|------------|
g|----2-------|-------2----|-------0----|------------|
D|------------|----------0-|----0-------|------------|
A|-2----------|------------|------------|------------|
E|------------|------------|-0----------|------------|

VERSE 2

e|------------|------------|------------|------------|
b|----------3-|------------|----------3-|------------|
g|-------0----|------------|-------2----|------------|
D|----2-------|------------|----0-------|------------|
A|-3----------|------------|-3----------|------------|
E|------------|------------|------------|------------|
I picture you across the ocean

e|------------|------------|----------2-|------------|
b|----------3-|------------|----------3-|------------|
g|-------2----|------------|-------0----|------------|
D|----0-------|------------|----0-------|------------|
A|-2----------|------------|------------|------------|
E|------------|------------|-0----------|------------|
In your corner of the world

e|------------|------------|------------|------------|
b|----------3-|------------|----------3-|------------|
g|-------2----|------------|-------0----|------------|
D|----2-------|------------|----0-------|------------|
A|-3----------|------------|-3----------|------------|
E|------------|------------|------------|------------|
I pray the wind will blow my voice

e|------------|------------|----------2-|------------|
b|----------3-|------------|----------3-|------------|
g|-------2----|------------|-------0----|------------|
D|----0-------|------------|----0-------|------------|
A|-2----------|------------|------------|------------|
E|------------|------------|-0----------|------------|
And gently whisper in your ear

e|----------0-|------------|----------0-|------------|
b|-------1----|----1-----1-|-------1----|------------|
g|----0-------|-------0----|----0-------|------------|
D|-3----------|------------|-3----------|------------|
A|------------|------------|------------|------------|
E|------------|------------|------------|------------|
Your night may be my day

e|----------3-|------------|-3-----2----|
b|----------3-|------------|-3-----3----|
g|-------0----|------------|------------|
D|----2-------|------------|-0-----0----|
A|-0----------|------------|------------|
E|------------|------------|------------|
And though the seasons change

CHORUS 2 + ENDING 

e|------------|------------|------------|------------|
b|-------3----|-------3----|----------0-|------------|
g|------------|------------|-------2----|------------|
D|----2-------|----0-------|----0-------|------------|
A|-3----------|-0----------|------------|------------|
E|------------|------------|-3----------|------------|
It's still the same side of the moon 

e|------------|------------|------------|-------0----|
b|-------3----|-------3----|----------3-|------------|
g|------------|------------|-------0----|------------|
D|----2-------|----0-------|----2-------|------------|
A|-3----------|-2----------|------------|------------|
E|------------|------------|-0----------|------------|
That we'll be looking on when the world turns blue

e|----------3-|------------|----------3-|------------|
b|----------1-|------------|----------3-|------------|
g|-------0----|------------|-------0----|------------|
D|----2-------|------------|----2-------|------------|
A|-3----------|------------|-0----------|------------|
E|------------|------------|------------|------------|
And know that time and space can't come between me and you

e|-------3--2-|
b|------------|
g|----0-------|
D|-0----------|
A|------------|
E|------------|

e|------------|------------|------------|------------|
b|-------3----|-------3----|----------0-|------------|
g|------------|------------|-------2----|------------|
D|----2-------|----0-------|----0-------|------------|
A|-3----------|-0----------|------------|------------|
E|------------|------------|-3----------|------------|
We share the same side of the moon

e|------------|------------|------------|----0-------|
b|-------3----|-------3----|----------3-|-------3----|
g|------------|------------|-------0----|----------0-|
D|----2-------|----0-------|----2-------|------------|
A|-3----------|-2----------|------------|------------|
E|------------|------------|-0----------|------------|
And though you'll never see all the tears shine through

e|------------|
b|----------3-|
g|-------0----|
D|----2-------|
A|------------|
E|-0----------|

e|-------3----|------------|------------|------------|
b|-------3----|-------3----|----------3-|------------|
g|------------|------------|-------0----|------------|
D|----2-------|----0-------|----2-------|------------|
A|-3----------|-2----------|-3----------|------------|
E|------------|------------|------------|------------|
I know I can't be that far from you

e|------------|------------|------------|-------2----|
b|-------3----|-------3----|-------3----|-------3----|
g|-------0----|-------0----|------------|----2-------|
D|----2-------|----0-------|----2-------|-0----------|
A|-3----------|-2----------|-3----------|------------|
E|------------|------------|------------|------------|
If we're both looking on the same side of the moon

e|----------2-|------------|------------|------------|
b|----------3-|------------|-3-----3----|------------|
g|-------0----|------------|-0-----0----|------------|
D|----2-------|------------|-0----------|------------|
A|------------|------------|-------2----|------------|
E|-0----------|------------|------------|------------|

e|-------3----|------------|------------|------------|
b|-------3----|-------3----|----------3-|------------|
g|------------|------------|-------0----|------------|
D|----2-------|----0-------|----2-------|------------|
A|-3----------|-2----------|-3----------|------------|
E|------------|------------|------------|------------|
I know I can't be that far from you

e|------------|------------|------------|-------2----|
b|-------3----|-------3----|-------3----|-------3----|
g|-------0----|-------0----|------------|----2-------|
D|----2-------|----0-------|----2-------|-0----------|
A|-3----------|-2----------|-3----------|------------|
E|------------|------------|------------|------------|
If we're both looking on the same side of the moon

e|----------0-|------------|----------0-|------------|
b|-------3----|----3-------|-------3----|----3-------|
g|----0-------|-------0----|----2-------|-------2----|
D|------------|----------0-|------------|----------0-|
A|-3----------|------------|-3----------|------------|
E|------------|------------|------------|------------|

e|-3----------|
g|-3----------|
b|-0----------|
D|-0----------|
A|-2----------|
E|-3----------|Strum upwards
Comments