Corey Hart - Sunglasses At Night Chords & Tabs

 

Sunglasses At Night Chords & Tabs

Corey Hart Chords & Tabs

Version: 1 Type: Bass Tab

Sunglasses At Night Bass Tab

Title: Sunglasses at night
Artist: Corey Hart
Album: Fist offense
Guitarist: Eric Clapton
Bassist:Unknow
Tabber: Steph
Email: cyberbassist@hotmail.com


intro/keyboard

G|------181817171515-|------1818171711515-|-----181817171515-----181817171515-|
D|*-1515------------*|*-1717-------------*|-1616-------------1818-------------|
A|*-----------------*|*------------------*|-----------------------------------|
E|-------------------|--------------------|-----------------------------------|

bass comes in 0:07

G|----------------------------|
D|*------4/6------4----------*|
A|*-------------4------------*|
E|-6/2-------------4-66---66--|


Verse (start 0:15)
[ Tab from: http://www.guitartabs.cc/tabs/c/corey_hart/sunglasses_at_night_btab.html ]
G|-----R-----------------------------|
D|*----E----------4/6---4-----------*|
A|*----S--------------4-------------*|
E|--66-T-466--6/2---------4-66--66---|

Pre-chorus

G|------------------|----------------|
D|*----------------*|----------------|
A|*----------------*|----------------|
E|-2-2-2-2-4-4-4-4--|-2-2-2-4~-------|


Chorus (1:00)

G|----------------------------------------------|-----|
D|*--------------------------------------------*|-----|
A|*--------------------------------------------*|--6~-|
E|-4h666-6-6-4h666--6-6-222-2-2-222-4444--------|-----|

Ending

G|----------------------------------------------------|
D|*--------------------------------------------------*|
A|*--------------------------------------------------*|
E|-6-6-6-6-6-6-6-6-6-6-6-6-6-6-6-6--2-2-2-2-4-4-4-4---|


EnJOy!
cyberbassist