Corb Lund Band - Truck Got Stuck Chords & Tabs

 

Truck Got Stuck Chords & Tabs

Corb Lund Band Chords & Tabs

Version: 1 Type: Tab

Truck Got Stuck Tab

   
-------------------------------------------------------------------------------
		  The Truck Got Stuck - Corb Lund Band
-------------------------------------------------------------------------------
Tabbed by:Bagface
Email:

Tuning: Standard / Capo at 7th fret
[ Tab from: http://www.guitartabs.cc/tabs/c/corb_lund_band/truck_got_stuck_tab.html ]
e|---------3--3-------3--3------3--3-------3--3-----2--2------2--2-----2--2--|
B|---------3--3-------3--3------3--3-------3--3-----3--3------3--3-----3--3--|
G|---------0--0-------0--0------0--0-------0--0-----2--2------2--2-----2--2--|
D|---------0--0-------0--0------------0h2--------0------------------0--------|
A|---------------0h2---------3-----------------------------0-----------------|
E|-------3-------------------------------------------------------------------|
                repeat throughout verses. Chorus- G-C-D-G-G-A-A-D
e|-------2--2----------------------------------------------------------------|
B|-------3--3----------------------------------------------------------------|
G|-------2--2----------------------------------------------------------------|
D|---------------------------------------------------------------------------|
A|----0----------------------------------------------------------------------|
E|---------------------------------------------------------------------------|