Coral - Dreaming Of You Chords & Tabs

 

Dreaming Of You Chords & Tabs

Coral Chords & Tabs

Version: 5 Type: Tab 0 ratings
1 star 2 stars 3 stars 4 stars 5 stars
comments

Dreaming Of You Tab

by stephen_o_hagan@hotmail.com (guess wot my name is)  i don't want any spam, or an 
to someones friend.


normal tuning


e-|-------------------------------------------------------0-3-0-3-0-3-------|
b-|-1-0-1-3-1-0---1-1---------------1-0-1-3-1-0---1-1-3-1-------------3-3-3-|
g-|-------------2-------0---0---0-2-------------2---------------------------|
d-|-------------------2---2---2---------------------------------------------|
a-|-------------------------------------------------------------------------|
e-|-------------------------------------------------------------------------|
[ Tab from: http://www.guitartabs.cc/tabs/c/coral/dreaming_of_you_tab_ver_5.html ]
e-|-----0-1-1-0-1-0---------0-----------0-------------------------------1-1-|
b-|-3-3-------------1---1-3---3-1---1-3---3-1---1-0---1-0-----1-1-1-1---1-1-|
g-|-----------------------------------------------------------2-2-2-2---2-2-|
d-|-----------------------------------------------------------2-2-2-2---3-3-|
a-|---------------------------------------------------------------------3-3-|
e-|---------------------------------------------------------------------1-1-|

e-|-1-1-------------1-1-1-1-------------3-3-3-3-------------1-0---1-0---|
b-|-1-1---2-2-2-2---1-1-1-1---1-1-1-1-------------1-1-1-1---1-0---1-0---|
g-|-2-2---2-2-2-2---2-2-2-2-----------------------2-2-2-2---2-1---2-1---|
d-|-3-3---2-2-2-2---3-3-3-3---2-2-2-2-------------2-2-2-2---3-2---3-2---|
a-|-3-3-------------3-3-3-3---3-3-3-3---2-2-2-2-------------3-2---3-2---|
e-|-1-1-------------1-1-1-1-------------3-3-3-3-------------1-0---1-0---|


   that's my tab of "dreaming of you" by the coral. don't moan if it's wrong, i'm only 
hope you enjoy playing it as muck as i have (i hated writing it out! it took ages)
Comments