Coral - Dreaming Of You Chords & Tabs

 

Dreaming Of You Chords & Tabs

Coral Chords & Tabs

Version: 3 Type: Tab 0 ratings
1 star 2 stars 3 stars 4 stars 5 stars
comments

Dreaming Of You Tab

This is one of the best songs around by one of the best bands around.
I wanted a bit of a break off punk and coral is just about the best
band to listen to when your in this situation.



  Intro/ Verse/ Solo (Bass) 
 Play this in a funky sort of way

G|---------------------------------------------------------------------------|
D|---------------------------------------------------------------------------|
A|-12-12-------12-12--------8-8-----8-8---8----------------------------------|
E|-------12-12-------12-12------8-8-----8------------------------------------|

  Intro/ Verse (lead) after to bars of bass intro this joins in. Up & Down Strokes 
e|-5-5-5-5-5--5-5-5-5-5------------------------------------------------------|
B|-5---5---5--6-6-6-6-6------------------------------------------------------|
G|-5---5---5--5---5---5------------------------------------------------------|
D|---------------------------------------------------------------------------|
A|---------------------------------------------------------------------------|
E|---------------------------------------------------------------------------|
[ Tab from: http://www.guitartabs.cc/tabs/c/coral/dreaming_of_you_tab_ver_3.html ]
  Intro/ Verse (chords)
e|---------------------------------------------------------------------------|
B|-1-------------------------------------------------------------------------|
G|-2-----2-------------------------------------------------------------------|
D|-2-etc-3-etc---------------------------------------------------------------|
A|-0-----3-------------------------------------------------------------------|
E|-------1-------------------------------------------------------------------|
  Intro/ Verse (2nd Guitarist) mute in between chords every so often.
e|-12-------8----------------------------------------------------------------|
B|-12--etc--8----------------------------------------------------------------|
G|-14-------9----------------------------------------------------------------|
D|-15-------10---------------------------------------------------------------|
A|---------------------------------------------------------------------------|
E|---------------------------------------------------------------------------|

   Chorus (all guitars [I think]) 
e|-0---0-0---3-3-3-1-1-1---0-0-0-0---|
B|-1-1-1-1-0-0-0-0-1-1-1---1-1-1-1---|
G|-0-0-0-0-0-0-0-0-2-2-2-2-2-2-2-2---|
D|-2-2-2-2-0---0-0-3-3-3-3-2-2-2-2---|
A|-3-----3-2---2-2-3-3-3-3-----0-0---|
E|---------3---3-3-1-1-1-1-------0---|


Solo ( bass, second guitarist and chords go on in the backround ) 

e|---------------------------------------------------------------------------|
B|-----0-------------------------0--------------------0---1---3--------------|
G|-2/4/5/7b-5-4-2-55---0-0-2-2/4/5/7b-5-4h5p4-2-55--2---2---4---5------------|
D|-------------------2--2----------------------------------------------------|
A|---------------------------------------------------------------------------|
E|---------------------------------------------------------------------------|

e|-8-------------------------------------------------------------------------|
B|---5----3h5-3h5p3--------3-----3-----------1-------------------------------|
G|-----5------------5-4-0----2h4---2h4p2p0-----2-----------------------------|
D|-----------------------------------------3-----3-3-3-2-0-------------------|
A|---------------------------------------------------------3-0---------------|
E|---------------------------------------------------------------------------|


Thanx. Tabbed by sam smith.
Comments