Coral - Dreaming Of You Chords & Tabs

 

Dreaming Of You Chords & Tabs

Coral Chords & Tabs

Version: 2 Type: Bass Tab 0 ratings
1 star 2 stars 3 stars 4 stars 5 stars
comments

Dreaming Of You Bass Tab

----------------------------------------------------------------------
                        DREAMING OF YOU - The Coral
----------------------------------------------------------------------

By: Alex Alsworth

Standard Tuning EADG

Intro / Verses:
G|----------------------|------------------|
D|----------------------|------------------|
A|-12--12----12--12-----|-8--8----8--8---8-|
E|------12--------12--12|-----8--8----8----|
[ Tab from: http://www.guitartabs.cc/tabs/c/coral/dreaming_of_you_btab_ver_2.html ]
Chorus:
G|-5--5-5--5-5--5-5-2|-------------------|-----------------|
D|-------------------|-5--5-5--5-5--5-5-4|-3--3---3--3---3-|
A|-------------------|-------------------|-----3------3----|
E|-------------------|-------------------|-----------------|

G|----------------------|------------------|------------------|
D|----------------------|------------------|------------------|
A|-12--12----12--12-----|-8--8----8--8---8-|-12--12-----------|
E|------12--------12--12|-----8--8----8----|------12----1-0---|

Second Chorus Finish on:
G------------------|-------------------|
D------------------|-------------------|
A-12--12-----------|-------------------|
E------12----1-0---|-1-0----1-0----1-0-|

Solo is similair to verses with slight variations on rythmn etc

Finish with     E|-1-0--
Comments