Coral - Badman Chords & Tabs

 

Badman Chords & Tabs

Coral Chords & Tabs

Version: 1 Type: Bass Tab

Badman Bass Tab

   
-------------------------------------------------------------------------------
			     Badman- The Coral
-------------------------------------------------------------------------------

Tabbed By :Grimjaw 
e-mail: 

Tuning:EADG

Play order:
Intro
Pre-Verse 1
Verse Part 1
Verse Part 2
Chorus
Pre-Verse 2
Verse Part 1
Verse Part 2
Chorus
Bridge
Verse Part 2
Pre-Verse 2
Chorus
 

Intro
Wait 4 bars then:
G|----------------------|---------------------|------------------------|
D|-9-9-8-8-7-7---7------|-9---8---7-7----7----|-9-9---8-8-7-7---7------|
A|-------------9---9----|---9---9------9---9--|-----9---------9----9---|
E|--------------------9-|--------------------7|----------------------7-|
Pre-Verse 1
G|------------------------|
D|------------------------|
A|----7----7---7--3-3-2-2-|
E|--7----7---7------------|
Verse Part 1
G|-------------------------------|
D|-------------------------------|
A|----7--5--7----7--5--7--3-5-3-2|X 2
E|-5-----------5-----------------|
Verse Part 2
G|-------------------------------------------|
D|-------------------------------------------|
A|----7--5--7----7--5--7----7--5--7---3-3-2-2|X4
E|--5----------5----------5------------------|
[ Tab from: http://www.guitartabs.cc/tabs/c/coral/badman_btab.html ]
Chorus
G|----------------|
D|----------------|
A|-7-7-6-6-5-5-5-5|x4
E|----------------|

Pre-Verse 2
G|-------------------------|
D|-------------------------|
A|---7/----7/---7/--3-3-2-2|
E|-7----7-----7------------|

Verse
G|---------------------------------------------------------------------------|
D|---------------------------------------------------------------------------|
A|---------------------------------------------------------------------------|
E|---------------------------------------------------------------------------|

G|---------------------------------------------------------------------------|
D|---------------------------------------------------------------------------|
A|---------------------------------------------------------------------------|
E|---------------------------------------------------------------------------|

G|---------------------------------------------------------------------------|
D|---------------------------------------------------------------------------|
A|---------------------------------------------------------------------------|
E|---------------------------------------------------------------------------|


| /  slide up
| \  slide down
| h  hammer-on
| p  pull-off
| ~  vibrato
| +  harmonic
| x  Mute note
===============================================================================