Copeland - When Paula Sparks Chords & Tabs

 

When Paula Sparks Chords & Tabs

Copeland Chords & Tabs

Version: 1 Type: Tab 0 ratings
1 star 2 stars 3 stars 4 stars 5 stars
comments

When Paula Sparks Tab

   
rythm guitar

drop D
intro/verse
soft tremelo
E------------------------------------------------|
B------------------------------------------------|
G--------0----------0---------------0------- x 8-|
D----7-0-------4-0----0----------0-----0---------|
A-----------------------------9------------------|
D-9---------5------------5/7---------------7-----|
1st chorus
E--------------------------------------------------------------------|
B--------------------------------------------------------------------|
G--------------------------------------------------------------------|
D----------------------------------------------------------------x 4-|
A---0---0---0---0---5---5---5---5---9---9---7---7---5---5---5---5----|
D-0---0---0---0---5---5---5---5---9---9---7---7---5---5---5---5------|
2nd verse
E------------------------------------------------|
B------------------------------------------------|
G--------0----------0---------------0------- x 8-|
D----7-0-------4-0----0----------0-----0---------|
A-----------------------------9------------------|
D-9---------5------------5/7---------------7-----|
2nd chorus
E-------------------------------------|
B-------------------------------------|
G-------------------------------------|
D-0-0-0-0-5-5-5-5-9-9-9-7-7-7-5-5-5-5-|
A-0-0-0-0-5-5-5-5-9-9-9-7-7-7-5-5-5-5-|x however many
D-0-0-0-0-5-5-5-5-9-9-9-7-7-7-5-5-5-5-|
break
E----------------------------------------------------------------------|
B----------------------------------------------------------------------|
G----------------------------------------------------------------------|
D-9-9-9-9-9-5-5-5-5-5-5-0-0-0-0-0-7-7-7-7-7-7-9-9-9-9-9-10-10-10-10-10-|
A-9-9-9-9-9-5-5-5-5-5-5-0-0-0-0-0-7-7-7-7-7-7-9-9-9-9-9-10-10-10-10-10-|
D-9-9-9-9-9-5-5-5-5-5-5-0-0-0-0-0-7-7-7-7-7-7-9-9-9-9-9-10-10-10-10-10-|

E-------------------|
B-------------------|
G-------------------|
D-5-5-5-5-5-5-5-5-5-|
A-5-5-5-5-5-5-5-5-5-|
D-5-5-5-5-5-5-5-5-5-|
[ Tab from: http://www.guitartabs.cc/tabs/c/copeland/when_paula_sparks_tab.html ]
E-----------|
B-----------|
G---------0-|
D---7--0----|
A-----------|
D-9---------|

then chorus till end

2nd guitar
drop D
verse/intro
chorus effect+delay
E------------------------------------|
B-----------------------------14-----|
G-------11--14--11--------11------11-|
D-12-14-------------12-14------------| random times and picking through
A------------------------------------|  verse
D------------------------------------|
first chorus

E-----------------------------------------------------------|
B-----------------------------------------------------------|
G----12-----11----12-----11----12----11----11-----9-11-9----|
D-12----12-----12----12-----12----12----12-----12--------12-|
A-----------------------------------------------------------|
D-----------------------------------------------------------|
(acoustic guitar in backgroud
E-------------------------------------------------|
B-------------------------------------------------|
G----12----11----11----11----12----14----14----14-|
D-12----12----12----12----12----12----12----12----|
A-------------------------------------------------|
D-------------------------------------------------|

verse again

second chorus
same as other guitar

solo

E-----------------------------------------------------------------|
B--------------------------------------------15-15-14-14-12-12-12-|
G-14-14-12-12-11-11-11-14-14-12-12-11-11-11-----------------------|
D-----------------------------------------------------------------|
A-----------------------------------------------------------------|
D-----------------------------------------------------------------|


E-----------------------------------------------------------------------|
B--------------------------------------------15-15-14-14-15-15-14-14-15-|
G-14-14-12-12-11-11-11-14-14-12-12-11-11-11-----------------------------|
D-----------------------------------------------------------------------|
A-----------------------------------------------------------------------|
D-----------------------------------------------------------------------|

same as other guitar till end
Comments