Copeland - Take Care Chords & Tabs

 

Take Care Chords & Tabs

Copeland Chords & Tabs

Version: 1 Type: Chords 0 ratings
1 star 2 stars 3 stars 4 stars 5 stars
comments

Take Care Chords

-----------------------------------------------------------------------------
			     TAKE CARE - Copeland
-----------------------------------------------------------------------------

Tabbed by: Melissa W.
Email: eastsidepeppie@aol.com

Tuning: Standard

Intro/Chorus:
e|--3---3---3---3---|
B|--3---3---3---3---|
G|--0---2---0---0---|	(3x)
D|--2---0---2---0---|
A|--3---0---2---2---|
E|--0---0---0---3---|

Verse, same as chorus	

Pre-chorus:
e|--3-----------------------------------3-----------------------------------|
B|--3-----------------------------------3-----------------------------------|
G|--2-----------------------------------0-----------------------------------|
D|--2-----------------------------------2-----------------------------------|
A|--0-----------------------------------3-----------------------------------|
E|--0-----------------------------------0-----------------------------------|
"So for now I'll keep believing your words..."
[ Tab from: http://www.guitartabs.cc/tabs/c/copeland/take_care_crd.html ]
e|--3-----------------------------------3---3-------------------------------|
B|--3-----------------------------------3---3-------------------------------|
G|--2-----------------------------------0---2-------------------------------|
D|--2-----------------------------------2---0-------------------------------|
A|--0-----------------------------------3---0-------------------------------|
E|--0-----------------------------------0---0-------------------------------|
"...and soon enough my strength will return..."

Chorus

Verse

Pre-chorus ("Until you're sleeping...")

Chorus

e|--3---3------------------3---|
B|--3---3------------------3---|
G|--0---0------------------2---|
D|--2---2------------------0---|
A|--2---3------------------0---|
E|--0---0------------------0---|
"I'll be right there..."

Solo Deal
e|--3---3---3---3------3---3---3--------------------------------------------|
B|--3---3---3---3------3---3---3--------------------------------------------|
G|--0---0---2---0------0---0---2--------------------------------------------|
D|--2---2---0---2------2---2---0--------------------------------------------|
A|--2---3---0---3------2---3---0--------------------------------------------|
E|--0---0---0---0------0---0---0--------------------------------------------|

Verse ("Don't lift a finger, let me show you...")

Chorus

Then do the "I'll be right there" part again

End on Cadd (032033)
Comments