Copeland - No One Really Wins This Time Chords & Tabs

 

No One Really Wins This Time Chords & Tabs

Copeland Chords & Tabs

Version: 2 Type: Tab 0 ratings
1 star 2 stars 3 stars 4 stars 5 stars
comments

No One Really Wins This Time Tab

   
standard tuning
all that stuff
listen and play
Copeland-No One Really Wins-"In Motion"

[ Tab from: http://www.guitartabs.cc/tabs/c/copeland/no_one_really_wins_this_time_tab_ver_2.html ]
e--------------------------------------|
B--------------------------------------|
G--------------------------------------|
D--------------------------------------|
A----------------9-9-10-10-12-12-12-12-|
E-/7-7-7-7-7-7-------------------------|

e-----------------------|
B-----------------------|
G-----------------------|
D-5-5-5-5-5-9-7-7-7-9-7-|
A-5-5-5-5-5-9-7-7-7-9-7-|
E-3-3-3-3-3-7-5-5-5-7-5-|

listen and play
Comments