Copeland - Love Is A Fast Song Chords & Tabs

 

Love Is A Fast Song Chords & Tabs

Copeland Chords & Tabs

Version: 2 Type: Tab 0 ratings
1 star 2 stars 3 stars 4 stars 5 stars
comments

Love Is A Fast Song Tab

the onther one is wrong

eb---------------------------------------|
Bb---------------------------------------|
Gb---------------------------------5-5---|
Db-2--5-4-------0--2--5-4-----0----5-5-0-|
Ab-2-------0-2-----2------0-2-0----3-3-0-|
Eb-2---------------2----------0--------0-|

|-----------------------------------|
|-----------------------------------|
|-----------------------------5-5---|
|-2-----------2-2-------------5-5-0-|
|-2------0-2----2------0-2-0--3-3-0-|
|-2-5-4---------2-5-4-------------0-|
[ Tab from: http://www.guitartabs.cc/tabs/c/copeland/love_is_a_fast_song_tab_ver_2.html ]
|----7--5-----7------|
|-8--------8---------|
|---------------7--9-|
|--------------------|
|--------------------|
|--------------------|

|----------------------------------------------|
|----------------------------------------------|
|-------0---------------------0----------0-----|
|----4--------5-----------4----------9---------|
|-5--------5-----5--7--5----------7----------9-|
|----------------------------------------------|

|--------------------------------|
|--------------------------------|
|-5------------5-5-5-5-5-7-7-7-7-|
|-5-2-0-2-2-0--5-5-5-5-5-7-7-7-7-|
|-3-2-0-2-2-0--3-3-3-3-3-5-5-5-5-|
|---2-0-2-2-0--------------------|
Comments