Cooper Temple Clause - Way Out West Chords & Tabs

 

Way Out West Chords & Tabs

Cooper Temple Clause Chords & Tabs

Version: 1 Type: Tab 0 ratings
1 star 2 stars 3 stars 4 stars 5 stars
comments

Way Out West Tab

Way Out West

Intro + Verse

E------------------------------------------
B------------5-6-5-----------5-6-----------
G------------------0-----------------------
D--------7----------------7----------------
A----7-8---8----------7-8--8---------------
D--0---------------------------------------

E------------------------------------------
B-------------12-10------------------7-----
G--------7----------10-------7-----8---8---
D----7-8---8-------------7-8---8-9---------
A------------------------------------------
D--7-------------------7-------------------

E------------12-10-------------------------
B------------12-10-11----------------7-----
G--------7------------------7------8---8---
D----7-8---8------------7-8---8--9---------
A------------------------------------------
D--7------------------7--------------------



"Your lookin good..........."

E--5----------------------------------------
B--5--7-------------------------------------
G--5--7-------------------------------------
D--7--7-------------------------------------
A--7--5-------------------------------------
D--7----------------------------------------

E-------------------------------------------
B-------------------------------------------
G-------------------------------------------
D--------7-------7--------------------------
A----7-8-----7-8----------------------------
D--0-------0--------------------------------
[ Tab from: http://www.guitartabs.cc/tabs/c/cooper_temple_clause/way_out_west_tab.html ]
E-------------------------------------------
B-------------------------------------------
G-7-7-7-7-7-7-7-7---------------------------
D-7-7-7-7-7-7-7-7---------------------------
A-5-5-5-5-5-5-5-5---------------------------
D-0-0-0-0-0-0-0-0---------------------------


Mental Bit

E------------------------------------------
B------------------------------------------
G-7-7--9-----------------------------------
D-7-7--9-----------------------------------
A-5-5--7-----------------------------------
D------------------------------------------

This is what Dan plays for most of this section, but there are a few
fills around the place too.

E------------------------------------------
B------------------------------------------
G-9-9-11-11-13-14-14~----------------------
D------------------------------------------
A-7-7-9--9--11-12-12~----------------------
D------------------------------------------

E------------------------------------------
B------------------------------------------
G--19--21--18------------------------------
D------------------------------------------
A--17--19--16------------------------------
D------------------------------------------

E---------------------------------------------------
B---------------------------------------------------
G--19-19-19-19-19-19-19-19-19-19-19-19-19-19-19-21--
D---------------------------------------------------
A--17-17-17-17-17-17-17-17-17-17-17-17-17-17-17-19--
D---------------------------------------------------


Comments