Cooper Temple Clause - The Lake Chords & Tabs

 

The Lake Chords & Tabs

Cooper Temple Clause Chords & Tabs

Version: 2 Type: Tab 0 ratings
1 star 2 stars 3 stars 4 stars 5 stars
comments

The Lake Tab

The Cooper Temple Clause
The Lake

x=mute
Intro & Verse 
|-------------------------------------------------------------------------------
|--------------11-------------------10------------------9-------------------8---
|----------9-------------------7-------------------6-------------------5--------
|-------------------------------------------------------------------------------
|-------------------------------------------------------------------------------
|---x12x--------------x12x-----------------x12x----------------x12x-------------

Pre-Chorus
|-------------------------------------------------------------------------------
|----------------------------------------12-------12----------------------------
|---11----11----12----12----14-----14-------------------------------------------
|-12---12---12-----12----12----12-----12-------12-------------------------------
|-------------------------------------------------------------------------------
|-------------------------------------------------------------------------------
[ Tab from: http://www.guitartabs.cc/tabs/c/cooper_temple_clause/the_lake_tab_ver_2.html ]
|-------------------------------
|----------12-------------------
|-------------------------------
|--12~14------------------------       x8     ( ~ =Hammer On )
|-------------------------------
|-------------------------------

Chorus
|-------------------------------------------------------------------------------------
|-12-12-12-12---12-12-12-12---12\10---10-----10----10----10\12---12-12---12-12-12-12--
|-------------------------------------------------------------------------------------
|-------------------------------------------------------------------------------------
l-------------------------------------------------------------------------------------
|-------------------------------------------------------------------------------------

|---------------------------------------------------14----------------------14---------------
|----12\14--14-14---14-14-14-14------14~15--14~15--------15------14~15-------------15--bend--
|--------------------------------------------------------------------------------------------
|--------------------------------------------------------------------------------------------
|--------------------------------------------------------------------------------------------
|--------------------------------------------------------------------------------------------

Toms Solo Can Be Done If You Put The Guitar Up To Amp And Play With The Nobs!
Comments