Cooper Temple Clause - The Lake Chords & Tabs

 

The Lake Chords & Tabs

Cooper Temple Clause Chords & Tabs

Version: 1 Type: Tab 0 ratings
1 star 2 stars 3 stars 4 stars 5 stars
comments

The Lake Tab

The Lake

 
E------------------------------------- 
B-------------------------------------
G-------------------------------------
D------20------19------18------17----- 
A---19------17------16------15-------- 
E-0-------0-------0-------0-----------

After each phrase tweak the speed control on your delay pedal 
to get that sound tom gets.


2nd Guitar 

E------------------------------------
B------------------------------------
G--9-9-9-9-9-9-9-7-9-----------------
D------------------------------------
A--7-7-7-7-7-7-7-5-7-----------------
E------------------------------------


E------------------------------------
B------------------------------------
G------------------------------------
D----------------------------5-7-----
A--7-7---7-7--5-7--7-7--7-7----------
E------------------------------------


PreChorus
[ Tab from: http://www.guitartabs.cc/tabs/c/cooper_temple_clause/the_lake_tab.html ]
E--0-2-3--5--7-7-7-7-7-7-7-7--------
B-----------------------------------
G-----------------------------------
D-----------------------------------
A-----------------------------------
E-----------------------------------


Chorus


E-----------------------------------------------
B-----------------------------7---------9-------
G--------------4--6--7--6-7-6--7-6-7-7----9~----
D--2--4--5--7--4--6--7--------------------------
A--2--4--5--7--2--4--5--------------------------
E--0--2--3--5-----------------------------------


2nd Guitar


E----------------14-------------16---------------14-------------16----
B-12-10-12-14-15----15-14-15-14----17---14-15-15----15-14-15-15----17-
G---------------------------------------------------------------------
D---------------------------------------------------------------------
A---------------------------------------------------------------------
E---------------------------------------------------------------------

End of Chorus


E-----------------------------------
B-----------------------------------
G-----------------------------------
D--5--9--9-7-5-4--2-----------------
A--5--9--9-7-5-4--2-----------------
E--3--7--7-5-3-2--0-----------------


The rest of the song is mostly the chorus without singing.
Comments