Control Machete - De Perros Amores Chords & Tabs

 

De Perros Amores Chords & Tabs

Control Machete Chords & Tabs

Version: 1 Type: Tab 0 ratings
1 star 2 stars 3 stars 4 stars 5 stars
comments

De Perros Amores Tab

 Control Machete - De perros amores
 ----------------------------------


Tabbed by Bjoern Seifert (karmadrome@gmx.net).

Thanks to Gabo (emono_mania@yahoo.com) for his tab; that was the major source of
inspiration for me and got me started on this tab.



[Riff 1]
e|---------------------------------|--------------------------------|
B|-------------------------1-------|------------------------1-------|
G|-----0-----------0---------3-----|---0-----3-----2----------3-----|   
D|-------0---3p0-------0---------0-|-----1-----1--------1---------0-|
A|---------------------------------|--------------------------------|
E|---3-----3-----3-------3---------|-3-----3-----3--------3---------|
 
[Riff 2]
e|---------------||--------------------||
B|---------------||--------------------||
G|-----0---------||.---0---0----------.||
D|-------0---3p0-||.----(0)-(0)--3p0--.|| (0)-play quietly
A|---------------||--------------------||
E|---3-----3-----||--3---------3-------||

[ Tab from: http://www.guitartabs.cc/tabs/c/control_machete/de_perros_amores_tab.html ]
[Chorus]
(Hard to hear the chords there, but I guess this comes pretty close..I'm not really
sure about the 2nd chord tho..)
e|-------------|-----------|
B|-3---3---3---|---3---3---|
G|-3---3---3---|---3---5---|
D|-5---3---3---|---5---4---|
A|---------1---|---6---5---|
E|-3---1-------|-----------|


[Riff 3]
e---3--------------3--------------5--------------5-----------|
B-------3--------------3--------------4--------------4-------|
G-----------3--------------3--------------3--------------3---|
D------------------------------------------------------------|
A------------------------------------------------------------|
E------------------------------------------------------------|

[Riff 4]
e|-----------------------------------|----------------------------------------|
B|-----------------------------------|----------------------------------------|
G|------7-8---7----------7-8---7-----|-------------7------------------7-------|
D|----8---------8-7----8---------8-7-|------7-10---------------7-10-----------|
A|-10---------------10---------------|----9------------------9----------------|
E|-----------------------------------|-10-----------------10------------------|

-----------------------------------------------------------------------------

Arrangement
-----------

Intro:  [Riff 1] 4x

Verse:  [Riff 1] 4x
        [Riff 2] ?x
        [Riff 1] 5x
        [Riff 2] ?x

Chorus: [Chorus] 2x

Bridge: [Riff 3] 4x
        [Riff 4] 4x

Chorus: [Chorus] repeat and fade out :)
Comments