Consumed - Bye Bye Fatman Chords & Tabs

 

Bye Bye Fatman Chords & Tabs

Consumed Chords & Tabs

Version: 1 Type: Tab 0 ratings
1 star 2 stars 3 stars 4 stars 5 stars
comments

Bye Bye Fatman Tab

                        BYE BYE FATMAN - Consumed


Transcribed by: concrete@dog.com  -  www.angelfire.com/punk/oskertab
[ Tab from: http://www.guitartabs.cc/tabs/c/consumed/bye_bye_fatman_tab.html ]
riff 1
------------------------------------------------------------------------------
--------------------------------------------12-------12-------12--------------
-------------------------------8-9-11----11----11-11----11-11----11-----------
-10-11-13--13-13-13-13-13-9-----------9---------------------------------------
------------------------------------------------------------------------------
------------------------------------------------------------------------------
                                                                              
riff 2
------------------------------------------------------------------------------
------------------------------------------------------------------------------
-----------13-13-13-13-13-12-11---------------13-13-13-13-13-12-11------------
-10-11-13------------------------9-9-9/11-13----------------------------------
------------------------------------------------------------------------------
------------------------------------------------------------------------------
                                                                              
verse
------------------------------------------------------------------------------
------------------------------------------------------------------------------
------------------------------------------------------------------------------
-6-6-6-6-6-6-6-6-9-9-9-9-9-9-9-9-6-6-6-6-6-6-6-6-9-9-9-9-9-9-9-9--------------
-6-6-6-6-6-6-6-6-9-9-9-9-9-9-9-9-6-6-6-6-6-6-6-6-9-9-9-9-9-9-9-9--------------
-4-4-4-4-4-4-4-4-7-7-7-7-7-7-7-7-4-4-4-4-4-4-4-4-7-7-7-7-7-7-7-7--------------
                                                                              
chorus
-----------------|------------------------------------------------------------
-----3 times-----|-----4 times------------------------------------------------
-----------------|------------------------------------------------------------
-6-6-9-9-4-4-4-4-|-2-2-2-2-2-2-222-6-6-6-6-6-6-666----------------------------
-6-6-9-9-4-4-4-4-|-2-2-2-2-2-2-222-6-6-6-6-6-6-666----------------------------
-4-4-7-7-2-2-2-2-|-0-0-0-0-0-0-000-4-4-4-4-4-4-444----------------------------
                                                                              
bridge/outro
-----------------------------------------------------------------|------------
-----------------------------------------------------------------|------------
-----------------------------------------------------------------|------------
-6-6-6-6-6-6-666-9-9-9-9-9-9-999-6-6-6-6-6-6-666-9-9-9-9-9-9-999-|-6----------
-6-6-6-6-6-6-666-9-9-9-9-9-9-999-6-6-6-6-6-6-666-9-9-9-9-9-9-999-|-6----------
-4-4-4-4-4-4-444-7-7-7-7-7-7-777-4-4-4-4-4-4-444-7-7-7-7-7-7-777-|-4----------
                                                                              
other little riff (you can find out where it goes)
------------------------------------------------------------------------------
------------------------------------------------------------------------------
------------------------------------------------------------------------------
------------------------------------------------------------------------------
-6-7-6-7-6--------------------------------------------------------------------
------------7-----------------------------------------------------------------
Comments