Consuelo Velazquez - Besame Mucho Chords & Tabs

 

Besame Mucho Chords & Tabs

Consuelo Velazquez Chords & Tabs

Version: 1 Type: Tab 0 ratings
1 star 2 stars 3 stars 4 stars 5 stars
comments

Besame Mucho Tab

Besame mucho - Consuelo Velazquez

Intro
 ---------------- | ------5-------7- | ---------------- | ---------------- |
 ----1-------3--- | ----6-------8--- | ------5-------5- | ------4-------4- |
 --0---0---0---0- | --5-------7----- | ----6-------6--- | ----5-------5--- |
 ---------------- | ---------------- | --4-------4----- | --4-------4----- |
 ---------------- | ---------------- | 0-------0------- | 0-------0------- |
 0-------0------- | 0-------0------- | ---------------- | ---------------- |

 ------1-------1- | ------1-------1- | 
 ----2-------2--- | ----2-------2--- | 
 --2-------2----- | --1-------1----- | 
 ---------------- | ---------------- | 
 ---------------- | ---------------- | 
 0-------0------- | 0-------0------- | 

Besame, besame mucho
 ---------------- | ---------------- | ---------------- | ---------------- |
 ----1-------1--- | ----1-------1--- | ------3-------3- | ------3-------3- |
 --0---0---0---0- | --0---0---0---0- | ----5-------5--- | ----5-------5--- |
 ---------------- | ---------------- | --3-------3----- | --3-------3----- |
 ---------------- | ---------------- | 0-------0------- | 0-------0------- |
 0-------0------- | 0-------0------- | ---------------- | ---------------- |

 ---------------- | ------3--------- | ---------------- | ---------------- |
 ------3-------2- | ----4-------3--- | ----1-------1--- | ----1-------1--- |
 ----5-------3--- | --2-------1---1- | --0---0---0---0- | --0---0---0---0- |
 --3-------2----- | 3-------2------- | ---------------- | ---------------- |
 0--------------- | ---------------- | ---------------- | ---------------- |
 --------3------- | ---------------- | 0-------0------- | 0-------0------- |

Besame, besame mucho
 ------3-------3- | ------1-------1- | ---------------- | ---------------- |
 ----3-------3--- | ----2-------2--- | ----3-------3--- | ----3-------3--- |
 --3-------3----- | --0-------0----- | --2---2---2---2- | --1---1---1---1- |
 ---------------- | ---------------- | ---------------- | ---------------- |
 ---------------- | 0-------0------- | ---------------- | ---------------- |
 0-------0------- | ---------------- | 2-------2------- | 1-------1------- |

 ---------------- | ---------------- | ---------------- | 1--------------- |
 ------1-------1- | ------1-------1- | ------3-------3- | --3---3-------3- |
 ----2-------2--- | ----2-------2--- | ----2-------2--- | ----1-------1--- |
 --2-------2----- | --1-------1----- | --3-------3----- | ----------0----- |
 ---------------- | ---------------- | 2-------2------- | ---------------- |
 2-------2------- | 2-------2------- | ---------------- | 0-------0------- |

Besame, besame mucho
 ---------------- | ---------------- | ---------------- | ---------------- |
 ----1-------1--- | ----1-------1--- | ------3-------3- | ------6-------6- |
 --0---0---0---0- | --0---0---0---0- | ----5-------5--- | ----6-------6--- |
 ---------------- | ---------------- | --3-------3----- | --5-------5----- |
 ---------------- | ---------------- | ---------------- | ---------------- |
 0-------0------- | 0-------0------- | 5-------5------- | 6-------6------- |

 ---------------- | ---------------- | ---------------- | ---------------- |
 ------3-------2- | ------6-------5- | ---------------- | --------------5- |
 ----5-------3--- | ----5-------4--- | ----4-------4--- | ----4-------4--- |
 --3-------2----- | --6-------6----- | --5---5---5---5- | --5---5---5----- |
 ---------------- | ---------------- | ---------------- | ---------------- |
 5-------3------- | 4-------4------- | 3-------3------- | 3-------3------- |
[ Tab from: http://www.guitartabs.cc/tabs/c/consuelo_velazquez/besame_mucho_tab.html ]
Besame, besame mucho
 ---------------- | ---------------- | ---------------- | ---------------- |
 ----3-------3--- | ----2-------2--- | ----3-------3--- | ----3-------3--- |
 --0---0---0---0- | --2---2---2---2- | --2---2---2---2- | --1---1---1---1- |
 ---------------- | ---------------- | ---------------- | ---------------- |
 ---------------- | 0-------0------- | ---------------- | ---------------- |
 0-------0------- | ---------------- | 2-------2------- | 1-------1------- |

 ---------------- | ---------------- | ---------------- | ---------------- |
 ------1-------1- | ------1-------0- | ----1-------1--- | ----1-------1--- |
 ----2-------2--- | ----2-------1--- | --0---0---0---0- | --0---0---0---0- |
 --2-------2----- | --1-------0----- | ---------------- | ---------------- |
 ---------------- | ---------------- | ---------------- | ---------------- |
 2-------1------- | 2-------1------- | 0-------0------- | 0-------0------- |

Break
 ------5-------6- | ------5-------5- | ------7-------7- | ------5-------5- |
 ----5-------6--- | ----5-------5--- | ----7-------6--- | ----5-------5--- |
 --5-------7----- | --5-------5----- | --7-------7----- | --5-------5----- |
 4-------6------- | 5-------5------- | 7-------6------- | 5-------5------- |
 ---------------- | ---------------- | ---------------- | ---------------- |
 ---------------- | ---------------- | ---------------- | ---------------- |

 ------5-------3- | ------1-------0- | ---------------- | ------2-------1- |
 ----5-------3--- | ----3-------3--- | ------5-------4- | ----3-------3--- |
 --5-------4----- | --3-------3----- | ----2-------2--- | --2-------1----- |
 4-------3------- | ---------------- | --4-------4----- | ---------------- |
 ---------------- | ---------------- | ---------------- | ---------------- |
 ---------------- | 3-------3------- | 2-------2------- | 0-------0------- |

Besame, besame mucho
 ---------------- | ---------------- | ---------------- | ---------------- |
 ------1-------1- | ----1-------1--- | ----3-------3--- | ----3-------3--- |
 ----2-------2--- | --0---0---0---0- | --2---2---2---2- | --2---2---2---2- |
 --0-------0----- | ---------------- | ---------------- | ---------------- |
 ---------------- | ---------------- | ---------------- | ---------------- |
 1-------1------- | 0-------0------- | 1-------1------- | 1-------1------- |

 --------------0- | ----1-------0--- | ----0-------0--- | ----0-------0--- |
 ----3-------2--- | --1---1---0---0- | ---------------- | ---------------- |
 --2---2---2----- | --------1------- | --2---2---2---2- | --2---2---2---2- |
 ---------------- | ---------------- | ---------------- | ---------------- |
 --------0------- | 0--------------- | 3-------3------- | 3-------3------- |
 1--------------- | ---------------- | ---------------- | ---------------- |

Besame, besame mucho
 ------3-------3- | ------1-------1- | ---------------- | ---------------- |
 ----3-------3--- | ----2-------2--- | ----3-------3--- | ----3-------3--- |
 --3-------3----- | --0-------0----- | --2---2---2---2- | --1---1---1---1- |
 2-------2------- | ---------------- | ---------------- | ---------------- |
 ---------------- | 0-------0------- | ---------------- | ---------------- |
 ---------------- | ---------------- | 2-------2------- | 1-------1------- |

 ---------------- | ---------------- | ------3-------3- | ------1-------1- |
 --2---1-------1- | ------1-------0- | ----3-------3--- | ----2-------2--- |
 ----2-------2--- | ----2-------1--- | --3-------3----- | --2-------2----- |
 ----------2----- | --1-------0----- | 2-------2------- | ---------------- |
 ---------------- | ---------------- | ---------------- | 0-------0------- |
 2-------1------- | 2-------1------- | ---------------- | ---------------- |

 ---------------- | ---------------- | ---------------- | ------5-------7- |
 ----3-------3--- | ----3-------3--- | ----3-------3--- | ----6-------8--- |
 --2---2---2---2- | --1---1---1---1- | --0---0---2---2- | --5-------7----- |
 ---------------- | ---------------- | ---------------- | ---------------- |
 ---------------- | ---------------- | ---------------- | ---------------- |
 2-------2------- | 1-------1------- | 0-------2------- | 0-------0------- |

 -10----- | 
 ---12--- | 
 -----12- | 
 -------- | 
 -------- | 
 -------- |
Comments