Connie Dungs - Bloody Footprints Chords & Tabs

 

Bloody Footprints Chords & Tabs

Connie Dungs Chords & Tabs

Version: 2 Type: Bass Tab 0 ratings
1 star 2 stars 3 stars 4 stars 5 stars
comments

Bloody Footprints Bass Tab

   
Band: Connie Dungs

Album: Connie Dungs

Song: Bloody footprints

tabbed by: ryan G



Intro



G:--------------------------

D:--------------------------

A:-----4-6-2---4-2--4-4

E:--2---------2------------



Verse



G:----------

D:----------

A:---2-6-4

E:-2-------



Prechorus



G:-------------------

D:-------------------
[ Tab from: http://www.guitartabs.cc/tabs/c/connie_dungs/bloody_footprints_btab_ver_2.html ]
A:-2-2-2-2-2-2-2

E:--------------------



Chorus



G:-------------------

D:-------------------

A:---------6-4-6-2

E:-2-2-2-----------



Bridge



G:------------------------

D:------------------------

A:--------4-4-------2-2

E:--2-2-------4-4------



3rd Prechorus



G:-----------

D:-----------

A:-6-4-2-4

E:-----------



Really nice song
Comments