Connells - 74-75 Chords & Tabs

 

74-75 Chords & Tabs

Connells Chords & Tabs

Version: 4 Type: Tab 0 ratings
1 star 2 stars 3 stars 4 stars 5 stars
comments

74-75 Tab

        Song: 74-75
	Band: Connells
        Tabbed by: Ricardo Dias, Lisbon


    (SOLO)
[ Tab from: http://www.guitartabs.cc/tabs/c/connells/74_75_tab_ver_4.html ]
|-----------------2/4-------------------------------------------------|
|---2/4-2---2/4------4--4-4/7-----------------------------------------|
|--------4-----4---------------3---4-3---3-3-4-3---------3h4-3--------|
|------------------------------------------------4--4h6--------6--4h6-|
|---------------------------------------------------------------------|
|---------------------------------------------------------------------|


|----------------2/4------2/4---2/4---------------------|
|--2/4-2---2/4------4--4-----4-----4--0---4/5-4---------|
|-------4-----4-----------------------------------4-3-1-|
|-------------------------------------------------------|
|-------------------------------------------------------|
|-------------------------------------------------------|
Comments