Connells - 74-75 Chords & Tabs

 

74-75 Chords & Tabs

Connells Chords & Tabs

Version: 3 Type: Tab 0 ratings
1 star 2 stars 3 stars 4 stars 5 stars
comments

74-75 Tab

   
The Connells
'74 - '75
Tabbed By: Lee Mainwaring

Intro
   G#m         B G#m  G#m         B G#m        
e ---------------4-4----------------4-4-----
B -------------2-4-4--------------2-4-4-----
G -------------4-4-4--------------4-4-4-----
D -------------4-6-6--------------4-6-6-----
A ---6-4-2---2-2-6-6----6-4-2---2-2-6-6-----
E -4-------4-----4-4--4-------4-----4-4-----


E         B          E                    B    B/A     E
   Got no reason for coming to me and the rain running down.
        B         G#m         
There's no reason.
E          B          E                      B    B/A    E    
   And the same voice coming to me like it's all slowing down.
       B          F# 
And believe me

          G#m              B                F#          E        
I was the one who let you know, I was your sorry-ever-after. 
     G#m B  F#
'74-'75

E           B     E                          B       E
   It's not easy, nothing to say 'cause it's already said.
           B      G#m
It's never easy.
       E            B          G#m        F#       E
When I look on your eyes then I find that I'll do fine.
       G#m           B              F#
When I look on your eyes then I do better.

Chorus:
          G#m              B                F#          E        
I was the one who let you know, I was your sorry-ever-after. 
     G#m B  F#
'74-'75
         G#m             B                F#           E       
Givin me more and i'll defy, cause you're really only after 
     G#m B  F#
'74-'75.

(Solo)

e ---------------4-4----------------4-4-----
B -------------2-4-4--------------2-4-4-----
G -------------4-4-4--------------4-4-4-----
D -------------4-6-6--------------4-6-6-----
A ---6-4-2---2-2-6-6----6-4-2---2-2-6-6-----
E -4-------4-----4-4--4-------4-----4-4-----
[ Tab from: http://www.guitartabs.cc/tabs/c/connells/74_75_tab_ver_3.html ]
     B               F#    G#m             B        F#
e -----------------2s4-2------------------------------
B -2s4-2---2s4-2---------4s7--------------------------
G -------4-------4-----------3-4-4-3-4-4-3--------3h4-
D -----------------------------------------4--4h6-----
A ----------------------------------------------------
E ----------------------------------------------------
            G#m B                F#      G#m
e -----------------------------2s4-2---2s4-2---2s4-2--
B --------------2s4-2---2s4-2--------4-------4------4
G -3-3----------------2-------2-----------------------
D -----4-4-4h6----------------------------------------
A ----------------------------------------------------
E ----------------------------------------------------
   E  C F#
e ----------------------------------------------------
B -0-----4s5-4----------------------------------------
G -------------4-3------------------------------------
D ----------------------------------------------------
A ----------------------------------------------------
E ----------------------------------------------------

E        B          E                    B    B/A     E
  Got no reason for coming to me and the rain running down.
           B         G#m
There's no reason.
       E            B           G#m        F#       E
When I look on your eyes then I find that I'll do fine.
       G#m           B              F#
When I look on your eyes then I do better.

Chorus:
          G#m             B                F#         E        
I was the one who let you know, I was your sorry-ever-after. 
     G#m B  F#
'74-'75
         G#m             B                F#          E       
Givin me more and i'll defy, cause you're really only after 
     G#m B  F#
'74-'75.

repeat chorus
repeat chorus 2x without words

(Outro riff)
e ---4-7-4-11-7s9-7-7-4---7-4------------7-11-7s9--
B -7--------------------7-----7-4-4--4h7-----------
G -------------------------------------------------
D -------------------------------------------------
A -------------------------------------------------
E -------------------------------------------------
Comments