Conflict - This Is The Alf Chords & Tabs

 

This Is The Alf Chords & Tabs

Conflict Chords & Tabs

Version: 1 Type: Tab 0 ratings
1 star 2 stars 3 stars 4 stars 5 stars
comments

This Is The Alf Tab

-------------------------------------------------------------------------------
			     This is the ALF - Conflict
-------------------------------------------------------------------------------
Tabbed by:Dave
Email:dave_robinson25@msn.com

Intro

e|-----------------------------------------------|
B|-----------------------------------------------|
G|----9-9-9-10-5-7-12-----9-9-9-5-10-12-7-9-9-9--|
D|----9-9-9-10-5-7-12-----9-9-9-5-10-12-7-9-9-9--|
A|----7-7-7-8--3-5-10-----7-7-7-3-8--10-5-7-7-7--|
E|-----------------------------------------------|

Verse

e|---------------------------------------------------------------------------------|
B|---------7-----------------------------------------------------------------------|
G|-------9---9---------2-----4-----------------------------------------------------|
D|-----9-------9-----2-----4-------------------------------------------------------|
A|---7-------------0-----2---------------------------------------------------------|
E|---------------------------------------------------------------------------------|

"Its possible to do things alone, slash tyres glue up locks.."
[ Tab from: http://www.guitartabs.cc/tabs/c/conflict/this_is_the_alf_tab.html ]
e|----------------------------------------|
B|----------------------------------------|
G|-----9-9-9-9-9-9-9-9-9-12-10-10-10-7-5--|
D|-----9-9-9-9-9-9-9-9-9-12-10-10-10-7-5--|
A|-----7-7-7-7-7-7-7-7-7-10-8-8-8-8--5-3--|
E|----------------------------------------|

"Sand in the petrol tank means the deliverys going nowhere.."

e|------------------------------------|
B|------------------------------------|
G|-----9-9-9-9-9-9-9-9-9-9-9-9-9-9----|
D|-----9-9-9-9-9-9-9-9-9-9-9-9-9-9-5--|
A|-----7-7-7-7-7-7-7-7-7-7-7-7-7-7-5--|
E|---------------------------------3--|

"Stop contributing to the abuse yourselves dont eat meat dont buy leather.."

e|--------------------------------|
B|--------------------------------|
G|---9-9-9-9-------------------5--|
D|---9-9-9-9--5-5-5-5-7-7-7-7--5--|
A|---7-7-7-7--5-5-5-5-7-7-7-7--3--|
E|------------3-3-3-3-5-5-5-5-----|

"Only when we have animal liberation.." Is the same as the verse.

Then it goes through the verses again

"Start by protecting the weak the defenceless.."

e|-------------------------------------------|
B|-------------------------------------------|
G|-------------------------------------------|
D|---9-9-9-9-9-9-9-9-9-9-9-9-9-9-9-12-11-10--|
A|---7-7-7-7-7-7-7-7-7-7-7-7-7-7-7-10-9--8---|
E|-------------------------------------------|

"EMOTIONAL, HOOLIGANS, CRANKS!"

e|------------------------|
B|------------------------|
G|---12-11-10-12-11-10-9--|
D|---12-11-10-12-11-10-9--|
A|---10-9--8--10-9--8--7--|
E|------------------------|


========================================================================
Comments