Concrete Blonde - Happy Birthday Chords & Tabs

 

Happy Birthday Chords & Tabs

Concrete Blonde Chords & Tabs

Version: 1 Type: Tab 0 ratings
1 star 2 stars 3 stars 4 stars 5 stars
comments

Happy Birthday Tab

   
#----------------------------------PLEASE NOTE---------------------------------#
#This file is the author's own work and represents their interpretation of the #
#song. You may only use this file for private study, scholarship, or research. #
#------------------------------------------------------------------------------##
From: aash@ms.uky.edu (Aashi Deacon)
Subject: Re: REQ: CRD/LYR to "Happy Birthday" by Concrete Blond

In article ,
Enrico_Giuseppe BETTIO  wrote:
>
>Hi there. I worked this out myself so its not 100% guaranteed but 
>I think its pretty right,  as for the lyrics.. they are off the top of my
>head.
>
>HAPPY BIRTHDAY       - by Concrete Blonde
>--------------         off the album 'Free'
>       Gm              Bb              F
>Happy birthday, happy birthday, happy birthday

i know Gm is probably the "correct" chord musically, but
i think it's just a G..   anyway, the solo is something like:

-------------------------------------------------------------------
-------------------------------------------------------------------
-------------------------------------------------------------------
--------------------0----------------------------------------------
--------0---3----3----3--0---1-1-1---1--0-----------5--3-----------
--1--3-------------------------------------3--1--0-----------------

[ Tab from: http://www.guitartabs.cc/tabs/c/concrete_blonde/happy_birthday_tab.html ]
-------------------------------------------------------------------
-------------------------------------------------------------------
-------------------------------------------------------------------
---------------3-3-2-----------------------------------------------
--------0---3--------3--0-----1-1-1---1-0-----------5-3------------
--1--3-------------------------------------3--1--0-----------------


-------------------------------------------------------------------
-------------------------------------------------------------------
-------------------------------------------------------------------
-------8--10--7-8-7---------8--10--7-8-7---------------------------
-----8--------------8-----8--------------8-------------------------
---6--------------------6------------------------------------------

-------------------------------------------------------------------
-------------------------------------------------------------------
-------------------------------------------------------------------
-------8--10--7-8-7--------9-10-9-------12-13-12-------------------
-----8--------------8---10--------10--13---------13----------------
---6---------------------------------------------------------------

listen for the slides, and the timing, etc..

aash
-- 
aash@{ms.uky.edu|ukma.bitnet|ukpr}    "the only thing i ever really wanted to
{backbone|rutgers|uunet}!ukma!aash     say was wrong, was wrong, was wrong."

Comments