Comnidings - Wandering Walrus Chords & Tabs

 

Wandering Walrus Chords & Tabs

Comnidings Chords & Tabs

Version: 1 Type: Bass Tab 0 ratings
1 star 2 stars 3 stars 4 stars 5 stars
comments

Wandering Walrus Bass Tab

Tabbed By: Dr Peppa
Band: Comnidings
Song Title: Wandering Walrus
Album: Move Please


INTRO ( After guitar plays through once )

G-------------------------------------------------------
D-------------------------------------------------------   X2
A---7--7-7----9-9-9----5--5-5-5----7--7-7---------------
E---7--7-7----9-9-9----5--5-5-5----7--7-7---------------



Verse ( Also played during guitar solo )

G-------------------------------------------------------
D-------------------------------------------------------   X10
A-------------------------------------------------------
E---7--7-7----9-9-9----5--5-5-5-----7--7-7--------------


Chorus ( Heavey Part )

G---------------------------------------------------------------
D--------------------------------------------------------------- X2
A---------------------------------------------------------------
E---2--2-2--2-2-2----5-5-5-5-5-5----3--3-3--3-3-3---2-2-2-2-2-2-

[ Tab from: http://www.guitartabs.cc/tabs/c/comnidings/wandering_walrus_btab.html ]
G---------------------------------------------------------------
D--------------------------------------------------------------- X2
A--------------------7-7-7-7-7-7--------------------------------
E---2--2-2--2-2-2-------------------3--3-3--3-3-3---2-2-2-2-2-2-


G---------------------------------------------------------------
D---------------------------------------------------------------
A---------------------------------------------------------------
E---2--2-2--2-2-2----5-5-5-5-5-5----3--3-3--3-3-3---2-2-2-2-2-2-


Outro ( Realy Heavey )

G------------------------------------------------------------
D------------------------------------------------------------   X4
A------------------------------------------------------------
E--1--------12\---1-1-1-------12\----1--1-1--1-1-1-----12\---



Order


Intro - X2
Verse - X10
Chorus - X2
Verse - X10
Chorus - X2
Solo Part - X4
Chorus 
Verse - X6
Stop for about 10 seconds
Outro - X4


  * ENJOY *
Comments