Common Rider - Signal Signal Chords & Tabs

 

Signal Signal Chords & Tabs

Common Rider Chords & Tabs

Version: 1 Type: Tab 0 ratings
1 star 2 stars 3 stars 4 stars 5 stars
comments

Signal Signal Tab

   
Guys that do this song:Common Rider
                  Song:Signal Signal
                       this be me first tab. I tried not to screw it up, but I probably did.
                       I am prone to screwing things up. Use ska up strokes for the chords.
                       Tis a good song so dont butcher it by playing it wrong(just kidding).
                       And if I screwed it up,
                       stop using this tab.


[intro]

[Verse]
Dm          C                      A#
Seems like he had to wait a long time
Fill#1
before he gathered any answers
   Dm               C                  A#
And by the time they came, he was just about down
Dm      C
Saw him looking in the schoolyard
A#                 A
in the churches and the poolhall
 Dm               C          A#
Trying to find an exit from desolation town
[Chorus]
Dm      C          A#    A
Halcyon nights and radio waves
Dm              C
Signal Signal Signal
    A#        A
Never fade away
[Verse]
Dm         C                                   A#    Fill#1
The day that he heard it he was looking in the mirror
Dm                         C             A#   A
There were no more threads, there was no more help
Dm
And he knew without doubt
C                               A#                A
that the Classics of Love would not come from some bright star above
Dm            C                        A#
but would only be delivered through his own self

[Chorus]

Break(same as intro)

Sax Solo (if you just keep playing the same rythim then the chords are the same)

[Chorus]

[Outro] same as intro
END
[ Tab from: http://www.guitartabs.cc/tabs/c/common_rider/signal_signal_tab.html ]
Chords used
   Dm C  A# A
 e-5--8--6--5--|
 B-6--8--6--5--|
 G-7--9--7--6--|
 D-7--10-8--7--|
 A-x--x--x--x--|
 E-x--x--x--x--|

 [intro]
 Palm muted (if you dont know what that is. It means with the hand you are strumming with,
 lay your palm on the srings lightly, kind of close to the bridge as you play and it will give a muffled 
the amount
 pressure you put on the strings determines how it will sound)

   A-5--5-8-7-5--------------------| x4 on the 4th time you only play the notes on the A string then the 
starts
   E-------------5-55-3-5----------|


  Fill#1 A#    A
        e-66666-5--|
        B-66666-5--|
        G-77777-6--|
        D-88888-7--|
        A-88888-7--|
        E-66666-5--|

  Fill#2
        A----8-7-5-----------|
        E----------8-5-------|
    On the last chorus you can add this fill
    it will go like this
    Dm      C          A#    A
    Halcyon nights and radio waves
    Dm              C
    Signal Signal Signal
    A#             A FILL#2
    Never Fade Away

 Sax solo for guitar
 e----------------------------------------------------------------------------------------------------------------------|
 B-----------------------------------------------------------------8-6-5---8-6-5-------------------6-5-------8----5-----|
 G--------------------------------------------------5-7-5----5---------------------7-5--5-7---5--7-----7-5--------------|
 D----------5-7---8-7--5-----------------------5--7--------7------------------------------------------------------------|
 A--5----7-----------------8-7--8-7-5-----------------------------------------------------------------------------------|
 E-------------------------------------8--5-----------------------------------------------------------------------------|

  tabbed by matt m. If you have any questions, feel free to ask some one who can help you. Cause I can't.
Comments