Common Rider - Insurgents Chords & Tabs

 

Insurgents Chords & Tabs

Common Rider Chords & Tabs

Version: 1 Type: Tab 0 ratings
1 star 2 stars 3 stars 4 stars 5 stars
comments

Insurgents Tab

Common Rider  - Insurgents

tabbed by Geordy Taylor

I've noticed that there is a lack of common rider tabs out there, and since they are
such an incredible band i've decided to make some. This is my first tab so go easy on
it, but it should be a good jumping point for you to figure the song out from. Im sure
there are errors and if you find them email them to me, or if its major just make a
new tab of it.

Sk8ing782@cs.com

^ = ska stroke
* = palm mute

Intro x2
e ---------------------------------------------------|
B ---------------------------------------------------|
G----------------------------------------------------|
D----------------------------------------------------|
A------7-7--7-7-7---5----------5-5--7-7-7------------|
E---------------------------7----------------------7-|

Verse 1 x4
e ------------------------------------------------|
B ------------------------------------------------|
G -9-9--9-9-9----7-------7-7--9-9-9---------------|
D -9-9--9-9-9----7---9---7-7--9-9-9--9--9-9-9-9-9-|
A -7-7--7-7-7----5---9---5-5--7-7-7--9--9-9-9-9-9-|
E -------------------7---------------7--7-7-7-7-7-|

Chorus
e ---------------------------------------------------------|
B ---------------------------------------------------------|
G -9-9--9-9-9----7----------------7-7--9-9-9---------------|
D -9-9--9-9-9----7---9-9-9-9-9-9--7-7--9-9-9--9--9-9-9-9-9-|
A -7-7--7-7-7----5---9-9-9-9-9-9--5-5--7-7-7--9--9-9-9-9-9-|
E -------------------7-7-7-7-7-7--------------7--7-7-7-7-7-|

e ---------------------------------------------------------|
B ---------------------------------------------------------|
G -9-9--9-9-9----7----------------7-7--9-9-9---------------|
D -9-9--9-9-9----7---9-9-9-9-9-9--7-7--9-9-9--9------------|
A -7-7--7-7-7----5---9-9-9-9-9-9--5-5--7-7-7--9------------|
E -------------------7-7-7-7-7-7--------------7------------|
[ Tab from: http://www.guitartabs.cc/tabs/c/common_rider/insurgents_tab.html ]
Verse 2 x2  (you can take out the ska strokes and just do 5 muted ones if you want)
e --------x-x------------------------------x-x------------------|
B --------x-x------------------------------x-x------------------|
G--9--9---9-x--9-------7-7-7-7-7-7---------x-x------7-7-7-7-7-7-|
D--9--9---9-x--9-------7-7-7-7-7-7----9-9--9-x--9---7-7-7-7-7-7-|
A--7--7---7-x--7-------5-5-5-5-5-5----9-9--9-x--9---5-5-5-5-5-5-|
E-------------------------------------7-7--7-x--7---------------|
      *    ^   *         * * * * *      *       *     * * * * *

e --------x-x-------------------------------------|
B --------x-x-------------------------------------|
G--9--9---9-x-9-------7-7-7-7-7-7=--7-7--9-9-9----|
D--9--9---9-x-9-------7-7-7-7-7-7---7-7--9-9-9--9-|
A--7--7---7-x-7-------5-5-5-5-5-5---5-5--7-7-7--9-|
E-----------------------------------------------7-|
      *    ^  *          * * * * *  

Solo x2
e----------------------------------------------------|
B----------------------------------------------------|
G----------------------------------------------------|
D----12-12-12-12-12--10-10------12-12--10-10-10------|
A------------------------------------12-----------12-|
E ---------------------------------------------------|

repeat chorus

Solo 2 x2
e-------------------------------------------------------|
B-------------------------------------------------------|
G-------------------------------------------------------|
D-----12--10-12-10---12--10-12-10--12-12-12-12-10-10----|
A-----------------------------------------------------12|
E-------------------------------------------------------|

e ----------------------------------------------------------------|
B ----------------------------------------------------------------|
G--------9-9-9------------------------------------------9-9-9-----|
D--9-9--9-9-9--9(yell "INSURGENTS!!"-)-9-9--9-9-9---9-------------|
A--9-9--7-7-7--9--------------------------------9-9--7-7-7---9----|
E--7-7-----------7--------------------------------7-7------------7|

Pre Chorus
e-------------------------------------------------------------|
B-------------------------------------------------------------|
G---9-x-x--7-x-x---------7-x-x--9-x-x--7-x-x------------------|
D---9-x-x--7-x-x--9-x-x--7-x-x--9-x-x--7-x-x---9--9--9--9-9-9-|
A---7-x-x--5-x-x--9-x-x--5-x-x--7-x-x--5-x-x---9--9--9--9-9-9-|
E-----------------7-x-x------------------------7--7--7--7-7-7-|
      * *    * *    * *    * *    * *    * * 

Chorus

Outro x4
e-----------------|
B-----------------|
G-7-7--9-9-9------|
D-7-7--9-9-9--9---|
A-5-5--7-7-7--9---|
E-------------7---|
Comments