Common Mistake - Till Im There Chords & Tabs

 

Till Im There Chords & Tabs

Common Mistake Chords & Tabs

Version: 1 Type: Bass Tab 0 ratings
1 star 2 stars 3 stars 4 stars 5 stars
comments

Till Im There Bass Tab

Song Title: till im there 
Artist: common mistake 
File Type: btab 
Intro:
G:-------------------------------------------------------6--8--
D:----------------------66666666--------------------6--8-------
A:---66-----------66-------------66----------6666--------------
E:------6--4444------6--------------6--4444--------------------

G:-----------------------------------------
D:--------------------66666666-------------
A:---66-----------66-------------6666------
E:------6--4444-----6-----------------6666-
[ Tab from: http://www.guitartabs.cc/tabs/c/common_mistake/till_im_there_btab.html ]
Verse:
G:------------------------------------------------------------
D:------------------------------------------------------------
A:--66666666--------------------------------------------------
E:-----------66666666------44444444----66666666---------------

Chorus:

G:-------------------------------------------------------6--8--
D:----------------------66666666--------------------6--8-------
A:---66-----------66-------------66----------6666--------------
E:------6--4444------6--------------6--4444--------------------

G:--------------------------------------------|-------------------|
D:--------------------66666666----------------|-------------------|
A:---66-----------66-------------6666---------|-------------------|4X
E:------6--4444-----6-----------------6666----|1/5---1/5---1/5-1-5|


Verse:

Chorus:

guitar solo rest:

Chorus:

yea if u want the song check out www.rockshowman.tripod.com
Comments